:: Guitar & Bass Tabs Make Home Page
A B C D E F G H I J K L M N O P Q R S T U V W X Y Z #

  for    

On TABSPACE
Info About This Tab
Artist: Immortal Technique
Tab Type: Guitar
Difficulty: novice
Rate This Tab!
Fuck you 

Immortal Technique

I am almost 100% positive this Tab is correct everyojne i've showed it to has aggreed.

E|---------------------------------------------|
B|---------------------------------------------|
G|-------13b--------------------------------13b|
D|--13-------13--11----------------------------|
A|9----9-------------13--11--13--13--11--9-----|
E|---------------------------------------------|
pm.......    ...............................
E|----------------------------------------------------|
B|----------------------------------------------------|
G|-------------------------------11b------------------|
D|-----------------------11--13-----------------11--13|
A|9--11--13--11--11--13-----------------11--13--------|
E|----------------------------------------------------|
pm...............................   ..................
(Continuted)

Play that throughout the entire song



Trentskis DeBusschere


Share "Fuck You" by Immortal Technique


TOP 10 TABS

FRESH NEW TABS

ALL ARTISTS
artist wiki

mp3bear.com
song lyrics / contact us / privacy policy / tabspace toolbar
Copyright 2004 - 2014 TabSpace.com - All Rights Reserved.
song: fuck you guitar tabs by immortal technique

0.011