:: Guitar & Bass Tabs Make Home Page
A B C D E F G H I J K L M N O P Q R S T U V W X Y Z #

  for    

On TABSPACE
Info About This Tab
Artist: Electric Six
Tab Type: Bass
Rate This Tab!
Band : Electric Six
Song : Gay Bar
Tabber : Michael Keating
E-Mail : tubbyhunter@hotmail.com

Tuning: Standard

[Intro]

Clean Guitar plays the Riff once, Distorted Guitar joins.
Bass comes in the third time the Riff is played. You'll hear it.

G|------------------|-----------------|-----------------|-----------------|
D|------------------|-----------------|-----------------|-----------------|
A|-/5-5-5-5-5-5-5-5-|-5-5-5-5-5-5-5-5-|-5-5-5-5-5-5-5-5-|-5---3-----------|
E|------------------|-----------------|-----------------|---------5---3\--|

[Verse 1] "YOU!"

The bass is quiet, so its understandable if you get lost while listening.

G|-----------------|------------------|-----------------|-----------------|
D|-----------------|------------------|-----------------|-----------------|
A|--5--5-----------|-3--3----------3--|--5--5-----------|-3--3--------3---|
E|---------3-5-3-5-|-------5--5------5|---------3-5-3-5-|-------5--5----5-|

G|-----------------|------------------|-----------------|-----------------|
D|-----------------|------------------|-----------------|-----------------|
A|--5--5-----------|-3--3----------3--|--5--------------|-----------------|
E|---------3-5-3-5-|-------5--5------5|-----------------|-----------------|

[Verse 2] "Let's start a war..."

G|-----------------|------------------|-----------------|-----------------|
D|-----------------|------------------|-----------------|-----------------|
A|--5--5-----------|-3--3----------3--|--5--5-----------|-3--3--------3---|
E|---------3-5-3-5-|-------5--5------5|---------3-5-3-5-|-------5--5----5-|

G|-----------------|------------------|-----------------|-7---5-----------|
D|-----------------|------------------|--------------/7-|---------7---5\--|
A|--5--5-----------|-3--3----------3--|--5--------------|-----------------|
E|---------3-5-3-5-|-------5--5------5|-----------------|-----------------|

[Guitar Solo 1] x2

Rhythms a little odd, etc, listen to the track. You'll hear the note changes.

G|-----------------|------------------|-----------------|------------------|
D|-----------------|------------------|-----------------|------------------|
A|--5-5-5-5-5-5-5--|-3--3--3--3-3-3-3-|--5-5-5-5-5-5-5--|-3--3--3--3-3-3-3-|
E|-----------------|------------------|-----------------|------------------|

"At the Gar Bar!" 

G|-----------------|------------------|-----------------|------------------|
D|-----------------|------------------|-----------------|------------------|
A|--5-5-5-5-5-5-5--|-3--3--3--3-3-3-3-|--5-5-5-5-5-5-5--|-3--3--3--3-3-3-3-|
E|-----------------|------------------|-----------------|------------------|

G|-----------------|------------------|-----------------|------------------|
D|-----------------|------------------|-----------------|------------------|
A|--5-5-5-5-5-5-5--|-3--3--3--3-3-3-3-|--5-5-5-5-5-5-5--|-3--3--3--3-3-3-3-|
E|-----------------|------------------|-----------------|------------------|

[Verse 3] "Now tell me do ya..."

G|-----------------|------------------|-----------------|-----------------|
D|-----------------|------------------|-----------------|-----------------|
A|--5--5-----------|-3--3----------3--|--5--5-----------|-3--3--------3---|
E|---------3-5-3-5-|-------5--5------5|---------3-5-3-5-|-------5--5----5-|

G|-----------------|------------------|-----------------|-----------------|
D|-----------------|------------------|-----------------|-----------------|
A|--5--5-----------|-3--3----------3--|--5--5--5--5-5-5-|-3--3--3--3-3-3--|
E|---------3-5-3-5-|-------5--5------5|-----------------|-----------------|

G|-----------------|
D|-----------------|
A|--5--------------|
E|-----------------|

[Intro 2? Bridge? Whatever.]

Clean Guitar plays Riff twice.
Distorted Guitar plays Riff twice.

[Verse 4] "I've got something to put in you..."

G|-----------------|------------------|-----------------|-----------------|
D|-----------------|------------------|-----------------|-----------------|
A|--5--5-----------|-3--3----------3--|--5--5-----------|-3--3--------3---|
E|---------3-5-3-5-|-------5--5------5|---------3-5-3-5-|-------5--5----5-|

G|-----------------|------------------|-----------------|-----------------|
D|-----------------|------------------|-----------------|-----------------|
A|--5--5-----------|-3--3----------3--|--5--5--5--5-5-5-|-3--3--3--3-3-3--|
E|---------3-5-3-5-|-------5--5------5|-----------------|-----------------|

[Guitar Solo 2] x2

G|-----------------|------------------|-----------------|------------------|
D|-----------------|------------------|-----------------|------------------|
A|--5-5-5-5-5-5-5--|-3--3--3--3-3-3-3-|--5-5-5-5-5-5-5--|-3--3--3--3-3-3-3-|
E|-----------------|------------------|-----------------|------------------|

"You're a superstar..." 

G|-----------------|------------------|-----------------|------------------|
D|-----------------|------------------|-----------------|------------------|
A|--5-5-5-5-5-5-5--|-3--3--3--3-3-3-3-|--5-5-5-5-5-5-5--|-3--3--3--3-3-3-3-|
E|-----------------|------------------|-----------------|------------------|

G|-----------------|------------------|-----------------|------------------|
D|-----------------|------------------|-----------------|------------------|
A|--5-5-5-5-5-5-5--|-3--3--3--3-3-3-3-|--5-5-5-5-5-5-5--|-3--3--3--3-3-3-3-|
E|-----------------|------------------|-----------------|------------------|

"Yeah you're a superstar..."

G|-----------------|------------------|-----------------|------------------|
D|-----------------|------------------|-----------------|------------------|
A|--5-5-5-5-5-5-5--|-3--3--3--3-3-3-3-|--5-5-5-5-5-5-5--|-3--3--3--3-3-3-3-|
E|-----------------|------------------|-----------------|------------------|

G|-----------------|------------------|-----------------|------------------|
D|-----------------|------------------|-----------------|------------------|
A|--5-5-5-5-5-5-5--|-3--3--3--3-3-3-3-|--5-5-5-5-5-5-5--|-3--3--3--3-3-3-3-|
E|-----------------|------------------|-----------------|------------------|

G|-----------------|
D|-----------------|
A|--5--------------|
E|-----------------|

The End. Enjoy.


Share "Gay Bar" by Electric Six


TOP 10 TABS

FRESH NEW TABS

ALL ARTISTS
artist wiki

mp3bear.com
song lyrics / contact us / privacy policy / tabspace toolbar
Copyright 2004 - 2014 TabSpace.com - All Rights Reserved.
song: gay bar bass tabs by electric six

0.018