:: Guitar & Bass Tabs Make Home Page
A B C D E F G H I J K L M N O P Q R S T U V W X Y Z #

  for    

On TABSPACE
Info About This Tab
Artist: Electric Six
Tab Type: Bass
Difficulty: novice
Rate This Tab!
Band: Electric Six
Members: Dick Valentine, Percussion World, Tait Nucleus?, Smorgasbord, Johnny Na
$hinal, The Colonel
Song: Gay Bar, Part 2
Album: Flashy
Tabbed By: Scott Anderson
Symbol key: / - slide up
            \ - slide down
            ^ - bend note
            ~ - let note ring out

Tuning: EADG (standard)

If you think that there are errors with this tab, please leave a comment or PM me 
before you rate it so I can correct it.

Bass comes in at around 0:06, but you can play the guitar intro if you like:

G|------------|
D|------------|
A|-000-3^-0-0-|
E|------------|x2


Or play the proper bass intro:

G|-------|
D|-------|
A|-0-3-0-|
E|-------|


1st verse:

G|------------|
D|------------|
A|-000-3^-0-0-|
E|------------|x3

G|-----0-----|
D|-222---2-2-|
A|-----------|
E|-----------|

G|-----------------|
D|-----------------|
A|--------8^-------|
E|-111111----11-11-| (11's, not 1's)

G|------------|
D|------------|
A|-000-3^-0-0-|
E|------------|

G|------------|
D|------------|
A|------------|
E|-000-3^-0-0-|

G|------------|
D|------------|
A|-000-3^-0-0-|
E|------------|x4

G|-----0-----|
D|-222---2-2-|
A|-----------|
E|-----------|

G|-----------------|
D|-----------------|
A|--------8^-------|
E|-111111----11-11-| (11's, not 1's)

G|------------|
D|------------|
A|-000-3^-0-0-|
E|------------|

G|------------|
D|------------|
A|------------|
E|-000-3^-0-0-|

G|------------|
D|------------|
A|-000-3^-0-0-|
E|------------|




1st chorus:

G|---------|----------|--22-2----|----------|---|
D|-33-3----|----------|----2-2---|-222-2----|---|
A|---3-3---|-333-3----|----------|----2-2---|-2-|
E|---------|----3-3---|-3--------|----------|---|x2

G|----------|----------|----------|----------|
D|----------|----------|----------|----------|
A|----------|-33-333-3-|----------|----------|
E|-11-111-1-|----------|-55-555-5-|-00-000-0-| (1's, not 11's)

G|------------------------------|
D|------------------------------|
A|-5555555555555555--77777-77---|
E|------------------------------|


1st bridge:

G|-----------|
D|-----3-----|
A|-000---0-0-|
E|-----------|x4


Guitar solo:

G|------------|
D|------------|
A|-000-3^-0-0-|
E|------------|x3

G|-----0-----|
D|-222---2-2-|
A|-----------|
E|-----------|

G|-----------------|
D|-----------------|
A|--------8^-------|
E|-111111----11-11-| (11's, not 1's)

G|------------|
D|------------|
A|-000-3^-0-0-|
E|------------|

G|------------|
D|------------|
A|------------|
E|-000-3^-0-0-|

G|------------|
D|------------|
A|-000-3^-0-0-|
E|------------|


2nd verse:

G|------------|
D|------------|
A|-000-3^-0-0-|
E|------------|x3

G|-----0-----|
D|-222---2-2-|
A|-----------|
E|-----------|

G|-----------------|
D|-----------------|
A|--------8^-------|
E|-111111----11-11-| (11's, not 1's)

G|------------|
D|------------|
A|-000-3^-0-0-|
E|------------|

G|------------|
D|------------|
A|------------|
E|-000-3^-0-0-|

G|------------|
D|------------|
A|-000-3^-0-0-|
E|------------|


2nd chorus:

G|---------|----------|--22-2----|----------|---|
D|-33-3----|----------|----2-2---|-222-2----|---|
A|---3-3---|-333-3----|----------|----2-2---|-2-|
E|---------|----3-3---|-3--------|----------|---|x2

G|----------|----------|----------|----------|
D|----------|----------|----------|----------|
A|----------|-33-333-3-|----------|----------|
E|-11-111-1-|----------|-55-555-5-|-00-000-0-| (1's, not 11's)

G|------------------------------|
D|------------------------------|
A|-5555555555555555--77777-77---|
E|------------------------------|


2nd bridge:

G|-----------|
D|-----3-----|
A|-000---0-0-|
E|-----------|x2


3rd verse:

G|------------|
D|------------|
A|-000-3^-0-0-|
E|------------|x3

G|-----0-----|
D|-222---2-2-|
A|-----------|
E|-----------|

G|-----------------|
D|-----------------|
A|--------8^-------|
E|-111111----11-11-| (11's, not 1's)

G|------------|
D|------------|
A|-000-3^-0-0-|
E|------------|

G|------------|
D|------------|
A|------------|
E|-000-3^-0-0-|


End on this note:

G|----|
D|----|
A|-0~-|
E|----|



Share "Gay Bar Part 2" by Electric Six


TOP 10 TABS

FRESH NEW TABS

ALL ARTISTS
artist wiki

mp3bear.com
song lyrics / contact us / privacy policy / tabspace toolbar
Copyright 2004 - 2014 TabSpace.com - All Rights Reserved.
song: gay bar part 2 bass tabs by electric six

0.02