:: Guitar & Bass Tabs Make Home Page
A B C D E F G H I J K L M N O P Q R S T U V W X Y Z #

  for    

On TABSPACE
Info About This Tab
Artist: Tokio Hotel
Tab Type: Guitar
Difficulty: novice
Tuning: Half-Step Down
Rate This Tab!
----------------------------------------------------------------------------
                             GEH - Tokio Hotel
----------------------------------------------------------------------------
Tabbed by: Avrill
avrill_xx@yahoo.com

     [corrected August 10th 2008]

Tuning: d#A#F#C#G#D#

Intro:
guitar 1:
d#|------------------------------------------|
A#|---11111111--1111111--00000000--00000000--|
F#|---22222222--2222222--00000000--00000000--|
C#|---22222222--3333333--00000000--22222222--|
G#|------------------------------------------|
D#|------------------------------------------|

guitar 3
d#|--------5----0----------3--------|
A#|----------------1----------0-----|
F#|------------------------------0--|
C#|---------------------------------|
G#|---------------------------------|
D#|---------------------------------|

Verse:
guitar 1:
d#|------------------------------------------|
A#|---11111111--1111111--00000000--00000000--|
F#|---22222222--2222222--00000000--00000000--| x8
C#|---22222222--3333333--00000000--22222222--|
G#|------------------------------------------|
D#|------------------------------------------|

guitar 2
d#|------------------------------------------|
A#|------------------------------------------|
F#|------------------------------------------|
C#|------------------------------------------| x8
G#|---77777777--3333333--55555555--22222222--|
D#|---55555555--1111111--33333333--00000000--|

When the singer sings 'geh', guitar 2 plays this:
d#|--------5----0----------3--------|
A#|----------------1----------0-----|
F#|------------------------------0--|
C#|---------------------------------|
G#|---------------------------------|
D#|---------------------------------|

chorus
Geh, lass uns hinter dir und mir

guitar 1
d#|--0-0---3-3-3-3--3-3---1-1---0-0-0-0--0-0--|
A#|--1-1---0-0-0-0--0-0---3-3---1-1-1-1--1-1--|
F#|--0-0---0-0-0-0--0-0---2-2---2-2-2-2--2-2--|
C#|--2-2---0-0-0-0--0-0---0-0---2-2-2-2--2-2--|
G#|--3-3---2-2-2-2--2-2---------0-0-0-0--0-0--|
D#|--------3-3-3-3--3-3-----------------------|

guitar 2
d#|-------------------------------------------|
A#|-------------------------------------------|
F#|-------------------------------------------|
C#|--55555555------------77777777-------------| 
G#|--33333333--55555555--55555555--77777777---|
D#|------------33333333------------55555555---|


Versuch nicht zu verstehen Warum es nicht mehr geht

guitar 1
d#|--0-0---3-3-3-3--3-3---1-1---1-1-1-1---0-0-0--0--3-3--|
A#|--1-1---0-0-0-0--0-0---1-1---1-1-1-1---1-1-1--1--0-0--|
F#|--0-0---0-0-0-0--0-0---2-2---2-2-2-2---2-2-2--0--0-0--|
C#|--2-2---0-0-0-0--0-0---3-3---3-3-3-3---2-2-2--2--0-0--|
G#|--3-3---2-2-2-2--2-2---3-3---3-3-3-3---0-0-0--3--2-2--|
D#|--------3-3-3-3--3-3---1-1---1-1-1-1-------------3-3--|

guitar 2
d#|----------------------------------------------|
A#|----------------------------------------------|
F#|----------------------------------------------|
C#|--55555555------------------------------------| 
G#|--33333333--55555555---33333333---777--55-----|
D#|------------33333333---11111111---555--33-----|


Geh,versuch uns beide zu verlieren
guitar 1
d#|--0-0---3-3-3-3--3-3---1-1---0-0-0-0--0-0--|
A#|--1-1---0-0-0-0--0-0---3-3---1-1-1-1--1-1--|
F#|--0-0---0-0-0-0--0-0---2-2---2-2-2-2--2-2--|
C#|--2-2---0-0-0-0--0-0---0-0---2-2-2-2--2-2--|
G#|--3-3---2-2-2-2--2-2---------0-0-0-0--0-0--|
D#|--------3-3-3-3--3-3-----------------------|

guitar 2
d#|-------------------------------------------|
A#|-------------------------------------------|
F#|-------------------------------------------|
C#|--55555555------------77777777-------------| 
G#|--33333333--55555555--55555555--77777777---|
D#|------------33333333------------55555555---|


Für uns wird´s erst weitergehen wenn wir uns nicht mehr sehen
guitar 1
d#|---0-0--3-3-3-3--3-3---0-0-0-0-0-0-0-0-0-0--|
A#|---1-1--0-0-0-0--0-0---1-1-1-1-1-1-1-1-1-1--|
F#|---0-0--0-0-0-0--0-0---2-2-2-2-2-2-2-2-2-2--|
C#|---2-2--0-0-0-0--0-0---2-2-2-2-2-2-2-2-2-2--|
G#|---3-3--2-2-2-2--2-2---0-0-0-0-0-0-0-0-0-0--|
D#|--------3-3-3-3--3-3------------------------|

guitar 2
d#|-------------------------------------------|
A#|-------------------------------------------|
F#|-------------------------------------------|
C#|--55555555---------------------------------| 
G#|--33333333--55555555--33333333--777-555----|
D#|------------33333333--11111111--555-333----|

Geh, geh!
guitar 1
d#|--0-0---3-3---0-0-0-0-0-0-0--|
A#|--1-1---0-0---1-1-1-1-1-1-1--|
F#|--0-0---0-0---2-2-2-2-2-2-2--|
C#|--2-2---0-0---2-2-2-2-2-2-2--|
G#|--3-3---2-2---0-0-0-0-0-0-0--|
D#|--------3-3------------------|

guitar 2
d#|--------------------------|
A#|--------------------------|
F#|--------------------------|
C#|--5555---------77777777---| 
G#|--3333-5555----77777777---|
D#|-------3333----55555555---|


Verse
Chorus

Bridge

Ich brech´ das Licht ,die Schatten fall´n auf mich
guitar 1
d#|--1-1---3-3-3-3--3-3---0-0---0-0-0-0--0-0--|
A#|--3-3---0-0-0-0--0-0---0-0---1-1-1-1--1-1--|
F#|--2-2---0-0-0-0--0-0---0-0---2-2-2-2--2-2--|
C#|--0-0---0-0-0-0--0-0---2-2---2-2-2-2--2-2--|
G#|--------2-2-2-2--2-2---2-2---0-0-0-0--0-0--|
D#|--------3-3-3-3--3-3---0-0-----------------|

guitar 2
d#|-------------------------------------------|
A#|-------------------------------------------|
F#|-------------------------------------------|
C#|---77777777--------------------------------| 
G#|---55555555--55555555--22222222--77777777--|
D#|-------------33333333--00000000--55555555--|

Ich seh uns nicht   alle Schatten fall´n auf mich
guitar 1
d#|--1-1---3-3-3-3--3-3---0-0---0-0-0-0--0-0--|
A#|--3-3---0-0-0-0--0-0---0-0---1-1-1-1--1-1--|
F#|--2-2---0-0-0-0--0-0---0-0---2-2-2-2--2-2--|
C#|--0-0---0-0-0-0--0-0---2-2---2-2-2-2--2-2--|
G#|--------2-2-2-2--2-2---2-2---0-0-0-0--0-0--|
D#|--------3-3-3-3--3-3---0-0-----------------|

guitar 2
d#|-------------------------------------------|
A#|-------------------------------------------|
F#|-------------------------------------------|
C#|---77777777--------------------------------| 
G#|---55555555--33333333--22222222--77777777--|
D#|-------------11111111--00000000--55555555--|


Auf mich   alle Schatten fall'n auf mich
guitar 1
d#|--1--1-1-1-1-1---3--3-3-3-3-3---0--0-0-0-0-0--0--0-0-0-0-0--|
A#|--3--3-3-3-3-3---0--0-0-0-0-0---0--0-0-0-0-0--1--1-1-1-1-1--|
F#|--2--2-2-2-2-2---0--0-0-0-0-0---0--0-0-0-0-0--2--2-2-2-2-2--|
C#|--0--0-0-0-0-0---0--0-0-0-0-0---2--2-2-2-2-2--2--2-2-2-2-2--|
G#|-----------------2--2-2-2-2-2---2--2-2-2-2-2--0--0-0-0-0-0--|
D#|-----------------3--3-3-3-3-3---0--0-0-0-0-0----------------|

guitar 2
d#|----------------------------------------------------------|
A#|----------------------------------------------------------|
F#|----------------------------------------------------------|
C#|---7777777777---------------------------------------------| 
G#|---5555555555----3333333333-----2222222222----7777777777--|
D#|-----------------1111111111-----0000000000----5555555555--|


Tage gehen vorbei Ohne da zu sein
guitar 1
d#|------------------------------------------|
A#|------------------------------------------|
F#|---9999-777-------------------------------|
C#|---7777-777-7777777--9999-9-9-9--9999999--| x2
G#|------------8888888--7777-101010-7777777--|
D#|---------------------------------0000000--|

guitar 2
d#|------------------------------------------|
A#|------------------------------------------|
F#|------------------------------------------|
C#|------------------------------------------| x8
G#|---77777777--3333333--55555555--22222222--|
D#|---55555555--1111111--33333333--00000000--|


Das ist alles was uns bleibt
guitar 1
d#|---3-3-3-3-3----0-0-0-0-0-0----|
A#|---0-0-0-0-0----3-3-3-3-3-3----|
F#|---0-0-0-0-0----0-0-0-0-0-0----|
C#|---0-0-0-0-0----2-2-2-2-2-2----|
G#|---2-2-2-2-2----2-2-2-2-2-2----|
D#|---3-3-3-3-3----0-0-0-0-0-0----|


Chorus
Wenn du gehst, wenn du jetz gehst
guitar 1
d#|--0-0---3-3-3-3--3-3---1-1---0-0-0-0--0-0--|
A#|--1-1---0-0-0-0--0-0---3-3---1-1-1-1--1-1--|
F#|--0-0---0-0-0-0--0-0---2-2---2-2-2-2--2-2--|
C#|--2-2---0-0-0-0--0-0---0-0---2-2-2-2--2-2--|
G#|--3-3---2-2-2-2--2-2---------0-0-0-0--0-0--|
D#|--------3-3-3-3--3-3-----------------------|

guitar 2
d#|-------------------------------------------|
A#|-------------------------------------------|
F#|-------------------------------------------|
C#|--55555555------------77777777-------------| 
G#|--33333333--55555555--55555555--77777777---|
D#|------------33333333------------55555555---|


Versuch nicht zu verstehen Warum es nicht mehr geht
guitar 1 
d#|--0-0---3-3-3-3--3-3---1-1---1-1-1-1---0-0-0-0--3-3--|
A#|--1-1---0-0-0-0--0-0---1-1---1-1-1-1---1-1-1-1--0-0--|
F#|--0-0---0-0-0-0--0-0---2-2---2-2-2-2---2-2-2-2--0-0--|
C#|--2-2---0-0-0-0--0-0---3-3---3-3-3-3---2-2-2-2--0-0--|
G#|--3-3---2-2-2-2--2-2---3-3---3-3-3-3---0-0-0-0--2-2--|
D#|--------3-3-3-3--3-3---1-1---1-1-1-1------------3-3--|

guitar 2
d#|----------------------------------------------|
A#|----------------------------------------------|
F#|----------------------------------------------|
C#|--55555555------------------------------------| 
G#|--33333333--55555555---33333333---777--55-----|
D#|------------33333333---11111111---555--33-----|


Geh,versuch uns beide zu verlieren
guitar 1
d#|--0-0---3-3-3-3--3-3---1-1---0-0-0-0--0-0--|
A#|--1-1---0-0-0-0--0-0---3-3---1-1-1-1--1-1--|
F#|--0-0---0-0-0-0--0-0---2-2---2-2-2-2--2-2--|
C#|--2-2---0-0-0-0--0-0---0-0---2-2-2-2--2-2--|
G#|--3-3---2-2-2-2--2-2---------0-0-0-0--0-0--|
D#|--------3-3-3-3--3-3-----------------------|

guitar 2
d#|-------------------------------------------|
A#|-------------------------------------------|
F#|-------------------------------------------|
C#|--55555555------------77777777-------------| 
G#|--33333333--55555555--55555555--77777777---|
D#|------------33333333------------55555555---|

Für uns wird´s erst weitergehen wenn wir uns nicht mehr sehen
guitar 1
d#|---0-0--3-3-3-3--3-3---0-0-0-0-0-0-0-0-0-0--|
A#|---1-1--0-0-0-0--0-0---1-1-1-1-1-1-1-1-1-1--|
F#|---0-0--0-0-0-0--0-0---2-2-2-2-2-2-2-2-2-2--|
C#|---0-0--0-0-0-0--0-0---2-2-2-2-2-2-2-2-2-2--|
G#|---2-2--2-2-2-2--2-2---0-0-0-0-0-0-0-0-0-0--|
D#|---3-3--3-3-3-3--3-3------------------------|

guitar 2
d#|-------------------------------------------|
A#|-------------------------------------------|
F#|-------------------------------------------|
C#|--55555555---------------------------------| 
G#|--33333333--55555555--33333333--777-555----|
D#|------------33333333--11111111--555-333----|

Geh, geh!
d#|--0-0---3-3---0-0-0-0-0-0-0--|
A#|--1-1---0-0---1-1-1-1-1-1-1--|
F#|--0-0---0-0---2-2-2-2-2-2-2--|
C#|--2-2---0-0---2-2-2-2-2-2-2--|
G#|--3-3---2-2---0-0-0-0-0-0-0--|
D#|--------3-3------------------|

guitar 2
d#|--------------------------|
A#|--------------------------|
F#|--------------------------|
C#|--5555---------77777777---| 
G#|--3333-5555----77777777---|
D#|-------3333----55555555---|

Outro:
guitar 1:
d#|-----------------------|
A#|-----------------------|
F#|---9999-7-7-9999-77-9--|
C#|---7777-7-7-7777-77-7--| 
G#|---7777-7-7-7777-77-7--|
D#|-----------------------|


Tage gehen vorbei  ohne da zu sein...
guitar 1:
d#|-----------------------|
A#|-----------------------|
F#|---9999-7-7-9999-77-9--|
C#|---7777-7-7-7777-77-7--| play this untill the end of the song
G#|---7777-7-7-7777-77-7--|
D#|-----------------------|

Bleib
d#|----0----|
A#|----0----|
F#|----9----|
C#|----9----|
G#|----7----|
D#|---------|


Have fun! :)


Share "Geh" by Tokio Hotel


TOP 10 TABS

FRESH NEW TABS

ALL ARTISTS
artist wiki

mp3bear.com
song lyrics / contact us / privacy policy / tabspace toolbar
Copyright © 2004 - 2014 TabSpace.com - All Rights Reserved.
song: geh guitar tabs by tokio hotel

0.015