:: Guitar & Bass Tabs Make Home Page
A B C D E F G H I J K L M N O P Q R S T U V W X Y Z #

  for    

On TABSPACE
Info About This Tab
Artist: Misc Television
Tab Type: Guitar
Rate This Tab!
...GRANGE HILL THEME... by TV Themes
-----------------------.............

*from the TV Series 1977*


Intro:

e|--------------|
B|--5--7--------|
G|--------5-----|
D|-----------7--|
A|--------------|
E|--------------|

*(Rhythm Guitar):

A7, (G7, Ab7) (x2)

*(Lead Riff):

    A7
e|--------------|--------------|
B|-----5--7--8--|--5--7--------|
G|--6-----------|--------5-----|
D|--------------|-----------7--|
A|--------------|--------------|
E|--------------|--------------| (x2)

    D7                Eb7 E7
e|--------------|---------------|
B|--5-----------|---------5--8--|
G|-----7--5-----|--5--7---------|
D|-----------7--|---------------|
A|--------------|---------------|
E|--------------|---------------|

                         D7 Eb7 E7
e|--------------------|------------|
B|--5--8--8-----------|--5--6---7--|
G|-----------7--5-----|------------|
D|-----------------7--|------------|
A|--------------------|------------|
E|--------------------|------------|

    E7 Eb7 D7             A7
e|------------|--------------|
B|--7--6---5--|--5--7--------|
G|------------|--------5-----|
D|------------|-----------7--|
A|------------|--------------|
E|------------|--------------|

(Repeat)


CHORD DIAGRAMS:
---------------

   A7      G7      Ab7     D7     Eb7     E7

 EADGBE  EADGBE  EADGBE  EADGBE EADGBE  EADGBE
 575655  353433  464544  x545xx x656xx  0767xx


Tabbed by Joel from cLuMsY, Bristol, England, 2006
(clumsyband@hotmail.com)


Share "Grange Hill Theme" by Misc Television


TOP 10 TABS

FRESH NEW TABS

ALL ARTISTS
artist wiki

mp3bear.com
song lyrics / contact us / privacy policy / tabspace toolbar
Copyright 2004 - 2014 TabSpace.com - All Rights Reserved.
song: grange hill theme guitar tabs by misc television

0.019