:: Guitar & Bass Tabs Make Home Page
A B C D E F G H I J K L M N O P Q R S T U V W X Y Z #

  for    

On TABSPACE
Info About This Tab
Artist: Margot And The Nuclear So And Sos
Tab Type: Guitar
Rate This Tab!
Standard Tuning (demo is half step down)


INTRO
e--0-0-0-0----------0------------------------2----|
b--3--------0---3-0---3-0----3---3-s-5-0-------0--|
g--0--0-0-0---------------2--2---2----------------|
d--2----------2--------------0---0--------2--2----|
a--3----------2--------------0---0--------2--2----|
E-------------0--------------2---2--------0--0----|

VERSE
e--0-0----------------------2---|
b--3---3--0---3--3-3--0---------|
g--0-------------2---2----------|
d--2--------2-2----------2--2---|
a--3--------2-2----------2--2---|
E-----------0-0--2-------0--0---|

CHORUS
e----------------------------------|
b---3--3--3---3--------------------|
g----------------------------------|
d---------x------------------------| last time end on G
a---2--2--3---2--0h2p0-------------|
E---3---------3--------------------|

BRIDGE
e------------------------------------|
b--3--3--3--3--3---3--3---3--3--3----|
g--2-----------2----------------2----|
d-----2--2---------2------2----------| repeat 2 X
a-----2--3--2------2--2---3--2-------|
E--2--0-----3--2---0--3------3--2----|


Share "Holy Cow" by Margot And The Nuclear So And Sos


TOP 10 TABS

FRESH NEW TABS

ALL ARTISTS
artist wiki

mp3bear.com
song lyrics / contact us / privacy policy / tabspace toolbar
Copyright 2004 - 2014 TabSpace.com - All Rights Reserved.
song: holy cow guitar tabs by margot and the nuclear so and sos

0.064