:: Guitar & Bass Tabs Make Home Page
A B C D E F G H I J K L M N O P Q R S T U V W X Y Z #

  for    

On TABSPACE
Info About This Tab
Artist: Daphne Loves Derby
Tab Type: Guitar
Rate This Tab!
Hopeless Love 
Daphne Loves Derby

This one is tuned half a step down. All names of chords used are names as if this was
standard tuning. Listen to the song for strumming because I'm too lazy to do it.

Chords
                    (GmS) 
  Csus2  Am7    G  Gmaj7sus Bm7   Cm   A7sus   G5
Eb--3-----3-----3-----X------2-----3-----3-----3
Bb--3-----1-----3-----3------3-----4-----3-----3
Gb--0-----0-----0-----0------2-----5-----0-----0
Db--X-----2-----0-----4------4-----5-----2-----0
Ab--3-----0-----X-----3------2-----3-----0-----X
Eb--X-----X-----3-----X------X-----X-----X-----X


Intro:
Csus2 Am7 Csus2 Am7

Verse:
Csus2       Am7
200 miles away from home
Csus2                            Am7
200 miles beneath this lake is where my heart belongs.
Csus2         Am7
But you don't care at all.
Csus2                              Am7
You wouldn't even smile if I were screaming as the water 
       Csus2   Am7 Csus2
filled my lungs, my lungs.
Csus2               Am7
You demand to be chased for your love.
Csus2                                  Am7
My desperate heart is far too weak to run for you this

long.
Csus2             Am7  
But you dont care at all.
    Csus2                   Am7            
There's nothing I can do to draw you close to me.

Prechorus:
G        GmS               Bm7            Cm
Can you take this silence like a pill so I can breathe

again.
G        GmS           Bm7          Cm7
I've been trying to forget the best parts of you.
A7sus                     GmS               Csus2
But I'm still hoping that i'll be with you somehow,
  Csus2
somehow.

Chorus:
G        Csus2
Please be home tonight.
     Am7                            Csus2     G5
I'll die if I don't get a chance to make this just right.
G         Csus2      Am7
I'm sorry but I cant forget about the way I feel.
GmS              Csus2
Every time you're here.
Csus2                 Am7

Verse:
What would it take for me to be with you?
  Csus2                               Am7
I swear I'd rip my heart out if you said you'd be 

impressed.
Csus2          Am7
Just be impressed.
Csus2                             Am7
I'd go so far to please you but i bet you wouldn't care
 Csus2 Am7 Csus2 Am7
at all, at all.
Csus2             Am7
Hopeless love please leave me.
Csus2                                 Am7
This broken heart is far too weak to run for you this 

long.
Csus2            Am7
Why don't you care at all?
Csus2           Am7
I'm dying for a place in your heart.

Prechorus

Chorus

Outro:
Eb-------------------3------------------------3-----
Bb-------3~-------3----3----------3~-------3----3---
Gb-----0--------0--------0------0--------0--------0-
Db---4--------4---------------4--------4------------
Ab--------------------------3--------3--------------
Eb-3--------3---------------------------------------

Eb------------------3--------------------
Bb-------3~-------3---3----------3~---3~-
Gb-----0--------0-------0------0------0~-
Db---4--------4--------------4--------4~-
Ab-------------------------3----------3~-
Eb-3--------3----------------------------

Eb-------------------3------------------------3-----]
Bb-------3~-------3----3----------3~-------3----3---]
Gb-----0--------0--------0------0--------0--------0-]
Db---4--------4---------------4--------4------------]x2
Ab--------------------------3--------3--------------]
Eb-3--------3---------------------------------------]

Eb----------------------3---------------------3-----]
Bb-------3~3---------3----3---------3~------3---3---]
Gb-----0-----0-----0--------0-----0-------0-------0-]
Db---4-----------4--------------4-------4-----------]x2
Ab-0-----------2--------------3-------3-------------]
Eb--------------------------------------------------]

2nd Time - End on GmS

Hopeless love, why did you carve your home in me?

This broken heart is too weak to hold your weight.

And now i regret the day we met.

Help me forget your name.

www.purevolume.com/daphnelovesderby


Share "Hopeless Love" by Daphne Loves Derby


TOP 10 TABS

FRESH NEW TABS

ALL ARTISTS
artist wiki

mp3bear.com
song lyrics / contact us / privacy policy / tabspace toolbar
Copyright 2004 - 2014 TabSpace.com - All Rights Reserved.
song: hopeless love guitar tabs by daphne loves derby

0.007