:: Guitar & Bass Tabs Make Home Page
A B C D E F G H I J K L M N O P Q R S T U V W X Y Z #

  for    

On TABSPACE
Info About This Tab
Artist: Tokio Hotel
Tab Type: Guitar
Difficulty: intermediate
Rate This Tab!
This is the Humanoid Album tab including the 12 songs on the regular disc with some 
songs from the deluxe.

Here they are in order

01. Noise
02. Dark side of the sun
03. Automatic
04. World behind my wall
05. Humanoid
06. Forever now
07. Pain of love
08. Dogs unleashed
09. Human connect to human
10. Hey you
11. Love and Death
12. Zoom into me
13. Automatisch
14. Screamin'
15. In your shadow I can shine (Tabbed by JackiesGuitar)      <-Thanks

Ill add more as i figure them out on guitar. But you  I have all 12 on the regular disc, 
two from the deluxe, have fun


everything is 100% correct, and 100% ear transcribed

-----------------------------------------------------------------------------
1			     Noise - Tokio Hotel
-----------------------------------------------------------------------------

Tabbed by:XxGuitarZer0xX

Email:Spongebobs400s@hotmail.com

Tuning:Standard

There are 3 guitars in this song.

This is 100% correct Tabbed by ear. Scroll to the bottom of the page if you get
stuck I got some quick info down there.


Intro - Guitar 1
e|--------------------|
B|--------------------|
G|-4/7/9~~~~~~-7~~~~~-|
D|--------------------| Repeats through out the whole song
A|--------------------|
E|--------------------|


Guitar - 2
e|--------------|
B|----------17~-|
G|-16-19-16-----|
D|--------------| Repeat 7 times
A|--------------|
E|--------------|


Guitar 3
e|-------------------------------------|
B|-------------------------------------|
G|-99999999-44444444----------22222222-|
D|-99999999-44444444-55555555-22222222-|
A|-77777777-22222222-55555555-00000000-|
E|-------------------33333333----------|


Verse 1 (part 1) - Guitar 1 follows bass line every note is palm muted
e|---------------------------------------------------------------------------|
B|---------------------------------------------------------------------------|
G|---------------------------------------------------------------------------|
D|---------------------------------------------------------------------------| Repeat
A|-7-777-77777-777-777-77777-------------------------------------------------|
E|---------------------------7-777-77777-8-888-88888-5-555-55555-3-333-33333-|

Verse 1 (part 2)- Comes after the repeat
e|--------------------------|
B|--------------------------|
G|--------------------------|
D|--------------------------|
A|-333-333-333-33333-333-5~-|
E|--------------------------|

Chorus (part 1) - Guitar 1 and 3
e|-------------------------------------|
B|-------------------------------------|
G|-99999999-44444444----------22222222-|
D|-99999999-44444444-55555555-22222222-| Repeat 1 more time
A|-77777777-22222222-55555555-00000000-|
E|-------------------33333333----------|

Chorus (part 2) - Guitar 1 and 3
e|-------------------|
B|-------------------|
G|-55555555-77777777-|
D|-55555555-77777777-|
A|-33333333-55555555-|
E|-------------------|

Chorus - Guitar 2
e|--------------|
B|----------17~-|
G|-16-19-16-----|
D|--------------| Repeat many times
A|--------------|
E|--------------|

Verse 2 (part 1) - Guitar 1 follows bass line every note is palm muted
e|---------------------------------------------------------------------------|
B|---------------------------------------------------------------------------|
G|---------------------------------------------------------------------------|
D|---------------------------------------------------------------------------| Repeat
A|-7-777-77777-777-777-77777-------------------------------------------------|
E|---------------------------7-777-77777-8-888-88888-5-555-55555-3-333-33333-|

Verse 2 (part 2)- Comes after the repeat
e|--------------------------|
B|--------------------------|
G|--------------------------|
D|--------------------------|
A|-333-333-333-33333-333-5~-|
E|--------------------------|

Chorus (part 1) - Guitar 1 and 3
e|-------------------------------------|
B|-------------------------------------|
G|-99999999-44444444----------22222222-|
D|-99999999-44444444-55555555-22222222-| Repeat 1 more time
A|-77777777-22222222-55555555-00000000-|
E|-------------------33333333----------|

Chorus (part 2) - Guitar 1 and 3
e|-------------------|
B|-------------------|
G|-55555555-77777777-|
D|-55555555-77777777-|
A|-33333333-55555555-|
E|-------------------|

Chorus - Guitar 2
e|--------------|
B|----------17~-|
G|-16-19-16-----|
D|--------------| Repeat many times
A|--------------|
E|--------------|


Bridge - Guitar 1
e|-----------------------------------------------------|
B|-----------------------------------------------------|
G|-99999999-77777777-1414141414141414-1717171717171717-|
D|-xxxxxxxx-xxxxxxxx-xxxxxxxxxxxxxxxx-xxxxxxxxxxxxxxxx-| Repeat 3 more times
A|-77777777-55555555-1212121212121212-1515151515151515-|
E|-----------------------------------------------------|
These are twelves and fourteens and sixteens just so you know

Bridge - Guitar 2 and 3
e|---------------------------------------------|
B|---------------------------------------------|
G|-99999999-77777777---------------------------|
D|-99999999-77777777-77777777-1010101010101010-| Repeat 3 more times
A|-77777777-55555555-77777777-1010101010101010-|
E|-------------------55555555-8-8-8-8-8-8-8-8--|

Chorus (part 1) - Guitar 1 and 3
e|-------------------------------------|
B|-------------------------------------|
G|-99999999-44444444----------22222222-|
D|-99999999-44444444-55555555-22222222-| Repeat 1 more time
A|-77777777-22222222-55555555-00000000-|
E|-------------------33333333----------|

Chorus (part 2) - Guitar 1 and 3
e|-------------------|
B|-------------------|
G|-55555555-77777777-|
D|-55555555-77777777-|
A|-33333333-55555555-|
E|-------------------|

Chorus - Guitar 2
e|--------------|
B|----------17~-|
G|-16-19-16-----|
D|--------------| Repeat many times
A|--------------|
E|--------------|

QUICK INFO _

If you get stuck remember that these parts repeat and can be used at almost any time

e|--------------|
B|----------17~-|
G|-16-19-16-----|
D|--------------|
A|--------------|
E|--------------|

e|--------------------|
B|--------------------|
G|-4/7/9~~~~~~-7~~~~~-|
D|--------------------|
A|--------------------|
E|--------------------|

----------------------------------------------------------------------------
2                Dark Side of the Sun - Tokio Hotel
----------------------------------------------------------------------------
Tabbed by:XxGuitarZer0xX

Email:Spongebobs400s@hotmail.com

Tuning:Standard

THIS IS ALL YOU NEED TO PLAY THE SONG.
JUST USE YOUR BRAIN AND PUT THINGS IN THE CORRECT ORDER.

Intro and Verses!
e|---------------------------------|
B|---------------------------------|
G|---------------------------------|
D|-3h4-4-4-4-----------------------|Repeat as many times as needed!
A|-----------4h6-6-6-6-------------|
E|---------------------4h6-6-6-6-6-|


Any Chorus uses these chords
e|--------------------------------------------|
B|--------------------------------------------|
G|-10-11-11-11-11-6/8-8-8-8-------------------| Repeat as many times as
D|-10/11-11-11-11-6/8-8-8-8-6/8-8-8-8-8-8-8-8-| Needed!
A|-8-/9--9--9--9--4/6-6-6-6-6/8-8-8-8-8-8-8-8-|
E|--------------------------4/6-6-6-6-6-6-6-6-|

Bridge stars after second chorus when he says Sun very high pitch
e|-----------------------------------------------------------------|
B|-----------------------------------------------------------------|
G|--------------------8~----------8~----------8~----------8~-------|
D|-4~-6~-8~-10/8/6/4~-8~-8~-6~-4~-8~-8~-6~-4~-8~-8~-6~-4~-8~-8~-6~-|
A|-4~-6~-8~-10/8/6/4~-6~-8~-6~-4~-6~-8~-6~-4~-6~-8~-6~-4~-6~-8~-6~-|
E|-2~-4~-6~-8-/6/4/2~----6~-4~-2~----6~-4~-2~----6~-4~-2~----6~-4~-|

Repeat what has to be repeated after that

Hope this helps!

Easy song.

----------------------------------------------------------------------------
3			     AutoMatic - Tokio Hotel
----------------------------------------------------------------------------


check out my cover!

http://www.youtube.com/watch?v=eeXu7-Q6klE

Tabbed by:XxGuitarZer0xX

Email:Spongebobs400s@hotmail.com

Tokio Hotel - Automatic

Tuning:Standard

Intro
e|--------------------------------------|
B|--------------------------------------|
G|-----8-----8-----8-------10---10---10-|
D|-6-6---6-6---6-6---6-8-8----8----8----|
A|--------------------------------------|
E|--------------------------------------|

Verse
e|-------------------------------------|
B|-----------------------------8---8---|
G|-----8-----8---8---8---8---8---8---8-|
D|-6-6---6-6---6---6---6---6-----------|
A|-------------------------------------|
E|-------------------------------------|

e|---------------------------------------|
B|-----------------------------8---8-----|
G|-----8-----8---8---8---8---8---8---8---|
D|-8-8---8-8---8---8---8---8-------------|
A|---------------------------------------|
E|---------------------------------------|
repeat this (the end is a bit different)

Chorus (ever Chorus is exactly like this!)
e|---------------------------------------------------------------------|
B|---------------------------------------------------------------------|
G|---------------------------------------------------------------------|
D|-6666666666666-101010-888888888-101010-666666666666-101010-888888888-|
A|-6666666666666-101010-888888888-101010-666666666666-101010-888888888-|
E|-4444444444444-8-8-8--666666666-8-8-8--444444444444-8-8-8--666666666-|


VERSE (almost the same, but with more notes and it goes quicker now)


Chorus (Same as before)

Solo #1
e|------------------------------------------------------------------|
B|-13(hit 20 times)----------------15(hit 20 times)-----------------|
G|-----------------12(hit 20 times)---------------------------------|
D|-------------------------------------------------13(Hit 20 times)-|
A|------------------------------------------------------------------|
E|------------------------------------------------------------------|


Bridge
e|--------------------------------------------|
B|--------------------------------------------|
G|--------------------------------------------|
D|-66666666-66666666-10101010101010-888888888-| Repeat 3 Times
A|-66666666-66666666-10101010101010-888888888-|
E|-44444444-33333333-8-8-8-8-8-8-8--666666666-|

No guitar (BREAK)

Solo #2
e|--------------------------------------------------------|
B|--------------------------------------------------------|
G|-55555555-7777-8888--1212121212121212--1010101010101010-|
D|-xxxxxxxx-xxxx-xxxx--xxxxxxxxxxxxxxxx--x-x-x-x-x-x-x-x--|
A|-33333333-5555-6666--1010101010101010--8-8-8-8-8-8-8-8--|
E|--------------------------------------------------------|

e|--------------------------------------------------------|
B|--------------------------------------------------------|
G|-55555555-7777-8888--1515151515151515--1010101010101010-|
D|-xxxxxxxx-xxxx-xxxx--xxxxxxxxxxxxxxxx--x-x-x-x-x-x-x-x--|
A|-33333333-5555-6666--1313131313131313--8-8-8-8-8-8-8-8--|
E|--------------------------------------------------------|


CHORUS
e|---------------------------------------------------------------------|
B|---------------------------------------------------------------------|
G|---------------------------------------------------------------------|
D|-6666666666666-101010-888888888-101010-666666666666-101010-888888888-|
A|-6666666666666-101010-888888888-101010-666666666666-101010-888888888-|
E|-4444444444444-8-8-8--666666666-8-8-8--444444444444-8-8-8--666666666-|


Solo #3
e|------------------------------------------------------------------|
B|-13(hit 20 times)----------------15(hit 20 times)-----------------|
G|-----------------12(hit 20 times)---------------------------------|
D|-------------------------------------------------13(Hit 20 times)-|
A|------------------------------------------------------------------|
E|------------------------------------------------------------------|

e|----|
B|----|
G|----|
D|-6~-|
A|-6~-|
E|-4~-|

----------------------------------------------------------------------------
4			     World Behind My Wall - Tokio Hotel
-----------------------------------------------------------------------------

Tabbed by:XxGuitarZer0xX

Email:Spongebobs400s@hotmail.com

Tuning:Standard

100% correct! more TH tabs to come from the new album (HUMANOID)

Intro - Guitar 1
e|------------------------------------|
B|------------------------------------|
G|-5-4---------------5-4--------------|
D|-----5-3-2-3-5-5~------5-3-2-3-5-5~-|
A|------------------------------------|
E|------------------------------------|


Verse 1 - Guitar 1
e|------------------------------------------------------------------------|
B|------------------------------------------------------------------------|
G|-5-4---------------5-4---------------7-----------------5-4--------------|
D|-----5-3-2-3-5-5~------5-3-2-3-5-5~----8-------------------5-3-2-3-5-5~-|
A|-----------------------------------------10-8-5-6-8-8~------------------|
E|------------------------------------------------------------------------|

Repeat this whole thing one more time before Chorus

Chorus (part 1) - Guitar 1
e|---------------------------------------------------------------------|
B|---------------------------------------------------------------------|
G|-5555555555555555-2222222222222222------------------5555555555555555-|
D|-5555555555555555-2222222222222222-3333333333333333-5555555555555555-|
A|-3333333333333333-0000000000000000-3333333333333333-3333333333333333-|
E|-----------------------------------1111111111111111------------------|

Chorus (part 2) - Guitar 2
e|-------------------------------------------------------|
B|-------------------------------------------------------|
G|-5555555555555555-2222222222222222------------------5~-|
D|-5555555555555555-2222222222222222-3333333333333333-5~-|
A|-3333333333333333-0000000000000000-3333333333333333-3~-|
E|-----------------------------------1111111111111111----|

Chorus (part 1 and 2)- Guitar 2
e|-0~-0~-1~-0~-0~-0~-1~-0~-|
B|-1~-1~-1~-1~-1~-1~-1~-1~-|
G|-0~-2~-2~-0~-0~-2~-2~-0~-|
D|-2~-2~-3~-2~-2~-2~-3~-2~-|
A|-3~-0~-3~-3~-3~-0~-3~-3~-|
E|-------1~----------1~----|


Verse 2 - Guitar 1
e|------------------------------------------------------------------------|
B|------------------------------------------------------------------------|
G|-5-4---------------5-4---------------7-----------------5-4--------------|
D|-----5-3-2-3-5-5~------5-3-2-3-5-5~----8-------------------5-3-2-3-5-5~-|
A|-----------------------------------------10-8-5-6-8-8~------------------|
E|------------------------------------------------------------------------|

Pre Chorus - Guitar 1 - kinda tricky to execute but is do-able
e|------------------------------------------------------------------|
B|-1-1-1-1-0-0-0-0-0-0-0-0-1-1-3-3-1-1-1-1-0-0-0-0-0-0-0-0-1-1-3-3--|
G|--2-2-2-2-0-0-0-0-2-2-2-2-2-2-2-2-2-2-2-2-0-0-0-0-2-2-2-2-2-2-2-2-|
D|------------------------------------------------------------------|
A|------------------------------------------------------------------|
E|------------------------------------------------------------------|


Chorus (part 1) - Guitar 1
e|---------------------------------------------------------------------|
B|---------------------------------------------------------------------|
G|-5555555555555555-2222222222222222------------------5555555555555555-|
D|-5555555555555555-2222222222222222-3333333333333333-5555555555555555-|
A|-3333333333333333-0000000000000000-3333333333333333-3333333333333333-|
E|-----------------------------------1111111111111111------------------|

Chorus (part 2) - Guitar 2
e|-------------------------------------------------------|
B|-------------------------------------------------------|
G|-5555555555555555-2222222222222222------------------5~-|
D|-5555555555555555-2222222222222222-3333333333333333-5~-|
A|-3333333333333333-0000000000000000-3333333333333333-3~-|
E|-----------------------------------1111111111111111----|

Chorus (part 1 and 2)- Guitar 2
e|-0~-0~-1~-0~-0~-0~-1~-0~-|
B|-1~-1~-1~-1~-1~-1~-1~-1~-|
G|-0~-2~-2~-0~-0~-2~-2~-0~-|
D|-2~-2~-3~-2~-2~-2~-3~-2~-|
A|-3~-0~-3~-3~-3~-0~-3~-3~-|
E|-------1~----------1~----|

Post Chorus - Guitar 1 and 2
e|-0~-0~-|
B|-1~-1~-|
G|-0~-0~-|
D|-2~-2~-|
A|-3~-3~-|
E|-------|


Bridge (part 1)- Guitar 1
e|---------------------------------------------------------------------|
B|---------------------------------------------------------------------|
G|-1414141414141414-9999999999999999-1212121212121212-1010101010101010-|
D|-xxxxxxxxxxxxxxxx-xxxxxxxxxxxxxxxx-xxxxxxxxxxxxxxxx-x-x-x-x-x-x-x-x--|
A|-1212121212121212-7777777777777777-1010101010101010-8-8-8-8-8-8-8-8--|
E|---------------------------------------------------------------------|

Bridge (part 2) - Guitar 1
e|--------------------------------------------------------------------|
B|--------------------------------------------------------------------|
G|-1414141414141414-9999999999999999-12121212121212121212121212121212-|
D|-xxxxxxxxxxxxxxxx-xxxxxxxxxxxxxxxx-xxxxxxxxxxxxxxxxxxxxxxxxxxxxxxxx-|
A|-1212121212121212-7777777777777777-10101010101010101010101010101010-|
E|--------------------------------------------------------------------|


Take Me There (Chorus) - Guitar 1 and 2
e|-----------------------------------------------------|
B|-----------------------------------------------------|
G|-5555555555555555-2222222222222222-------------------|
D|-5555555555555555-2222222222222222-3333333333333333--|
A|-3333333333333333-0000000000000000-3333333333333333--|
E|-----------------------------------1111111111111111--|


Solo - Guitar 1
e|------------------------------------------------------|
B|------------------------------------------------------|
G|-12/9-12/9/10--12/9-12/9-9-10101010-12121212-14141414-|
D|-xx-x-xx-x/x---xx-x-xx-x-x-x-x-x-x--xxxxxxxx-xxxxxxxx-|
A|-10/7-10/7/8---10/7-10/7-7-8-8-8-8--10101010-12121212-|
E|------------------------------------------------------|
     /\
     ||
Softly played Before solo.


Outro - Guitar 2
e|-------------------------------------------------------|
B|-------------------------------------------------------|
G|-5555555555555555-2222222222222222------------------5~-|
D|-5555555555555555-2222222222222222-3333333333333333-5~-|
A|-3333333333333333-0000000000000000-3333333333333333-3~-|
E|-----------------------------------1111111111111111----|

Outro - Guitar 2
e|-0~-0~-1~-0~-|
B|-1~-1~-1~-1~-|
G|-0~-2~-2~-0~-|
D|-2~-2~-3~-2~-|
A|-3~-0~-3~-3~-|
E|-------1~----|

-----------------------------------------------------------------------------
5			     Humanoid - Tokio Hotel
-----------------------------------------------------------------------------

Tabbed by:XxGuitarZer0xX

Email:Spongebobs400s@hotmail.com

Tuning: Drop B <-----(LOL)

Drop B tuning

C#   <- Thinnest String
G#
E
B
F#
B    <- Thickest String


Guitar 1 and 2 are both Drop B

This tab is 100% correct. Tabbed by ear

For best use of this tab with one guitar, try to combine both guitar parts when
See what combinations of sound you can make. Song is pretty simple but multiple guitar 
and
tuning makes it hard to play.

Have fun.

XxGuitarZer0xX


Intro - Guitar 1 - every thing for this guitar is PALM MUTED
C#|-------------------------------------------|
G#|-------------------------------------------|
E |-------------------------------------------|
B |-------------------------------------------|
F#|-------------------------------------------|
B |-3-5555-3-5555-3-5555-0-1111-0-1111-0-1111-|

Intro - Guitar 2 - PALM MUTE areas are marked with *s
C#|-------------------------------------|
G#|-------------------------------------|
E |-------------------------------------|
B |-3-5555-3-55555555-0-1111-0-11111111-|
F#|-3-5555-3-55555555-0-1111-0-11111111-|
B |-3-5555-3-55555555-0-1111-0-11111111-|
    * **** *          * **** *


Verse 1 - Guitar 1 - every thing for this guitar is PALM MUTED
C#|-------------------------------------------|
G#|-------------------------------------------|
E |-------------------------------------------|
B |-------------------------------------------| Repeat 3 more times
F#|-------------------------------------------|
B |-3-5555-3-5555-3-5555-0-1111-0-1111-0-1111-|

Verse 1  - Guitar 2 - PALM MUTE areas are marked with *s
C#|-------------------------------------|
G#|-------------------------------------|
E |-------------------------------------|
B |-3-5555-3-55555555-0-1111-0-11111111-| Repeat 3 more times
F#|-3-5555-3-55555555-0-1111-0-11111111-|
B |-3-5555-3-55555555-0-1111-0-11111111-|
    * **** *          * **** *


Chorus - Guitar 1 - no palm muting
C#|-------------------------------------------|
G#|-------------------------------------------|
E |-------------------------------------------|
B |-------------------------------------------| Repeat 1 more time
F#|-------------------------------------------|
B |-3-5555-3-5555-3-5555-0-1111-0-1111-0-1111-|

Chorus - Guitar 2 - No palm muting
C#|------------------------------------|
G#|------------------------------------|
E |------------------------------------|
B |-5555555555555555-11111111111111111-| Repeat 1 more time
F#|-5555555555555555-11111111111111111-|
B |-5555555555555555-11111111111111111-|


Verse 2 (part 1) - One guitar only, with a bass guitar background
C#|----------------|
G#|----------------|
E |----------------|
B |-55--11--55--11-|
F#|-55--11--55--11-|
B |-55--11--55--11-|


Verse 2 (part 2) - Guitar 1
C#|----------------|
G#|----------------|
E |----------------|
B |-55--11--55--11-| Repeat once more
F#|-55--11--55--11-|
B |-55--11--55--11-|

Verse 2 (part 2) - Guitar 2
C#|-15~-----15~-----|
G#|-----18~-----18~-|
E |-----------------|
B |-----------------| Repeat two more times
F#|-----------------|
B |-----------------|


Chorus - Guitar 1 - no palm muting
C#|-------------------------------------------|
G#|-------------------------------------------|
E |-------------------------------------------|
B |-------------------------------------------| Repeat 3 more times
F#|-------------------------------------------|
B |-3-5555-3-5555-3-5555-0-1111-0-1111-0-1111-|

Chorus - Guitar 2 - No palm muting
C#|------------------------------------|
G#|------------------------------------|
E |------------------------------------|
B |-5555555555555555-11111111111111111-| Repeat 3 more times
F#|-5555555555555555-11111111111111111-|
B |-5555555555555555-11111111111111111-|


Post Chorus - both guitars
C#|-------------------------------------|
G#|-------------------------------------|
E |-------------------------------------|
B |-33333333-11111111-33333333-11111111-|
F#|-33333333-11111111-33333333-11111111-|
B |-33333333-11111111-33333333-11111111-|


Bridge First time - Both guitars
C#|-------------------------------------------------------------------------|
G#|-------------------------------------------------------------------------|
E |-3333333333333333-7777777777777777-8888888888888888888888888888/10101010-|
B |-3333333333333333-7777777777777777-8888888888888888888888888888/x-x-x-x--|
F#|-1111111111111111-5555555555555555-6666666666666666666666666666/8-8-8-8--|
B |-------------------------------------------------------------------------|


Post Bridge - Guitar 1
C#|---------------------------------------------------------------|
G#|---------------------------------------------------------------|
E |---------------------------------------------------------------|
B |-55--11--55--11--55--11--55-0-1111-0-1111-0-1111-0-1111-0-1111-|
F#|-55--11--55--11--55--11--55-0-1111-0-1111-0-1111-0-1111-0-1111-|
B |-55--11--55--11--55--11--55-0-1111-0-1111-0-1111-0-1111-0-1111-|

Post Bridge - Guitar 2
C#|-15~-----15~-----|
G#|-----18~-----18~-|
E |-----------------|
B |-----------------| Repeat 7 more times
F#|-----------------|
B |-----------------|


Chorus - Guitar 1 - no palm muting
C#|-------------------------------------------|
G#|-------------------------------------------|
E |-------------------------------------------|
B |-------------------------------------------| Repeat 3 more times
F#|-------------------------------------------|
B |-3-5555-3-5555-3-5555-0-1111-0-1111-0-1111-|

Chorus - Guitar 2 - No palm muting
C#|------------------------------------|
G#|------------------------------------|
E |------------------------------------|
B |-5555555555555555-11111111111111111-| Repeat 3 more times
F#|-5555555555555555-11111111111111111-|
B |-5555555555555555-11111111111111111-|


Post Chorus - both guitars
C#|-------------------------------------|
G#|-------------------------------------|
E |-------------------------------------|
B |-33333333-11111111-33333333-11111111-| Repeat once more
F#|-33333333-11111111-33333333-11111111-|
B |-33333333-11111111-33333333-11111111-|


(Post) Post Chorus - Note leading into second Bridge
C#|------------------|
G#|------------------|
E |-3333333333333333-|
B |-3333333333333333-|
F#|-1111111111111111-|
B |------------------|


Bridge Second Time - Both guitars
C#|-------------------------------------------------------------------------|
G#|-------------------------------------------------------------------------|
E |-3333333333333333-7777777777777777-8888888888888888888888888888/10101010-|
B |-3333333333333333-7777777777777777-8888888888888888888888888888/x-x-x-x--|
F#|-1111111111111111-5555555555555555-6666666666666666666666666666/8-8-8-8--|
B |-------------------------------------------------------------------------|
Repeat this whole thing one more time


Solo - Guitar 1
C#|---------------------------------------------------------------------|
G#|---------------------------------------------------------------------|
E |---------------------------------------------------------------------|
B |-/17\8/15\8-12-12-/17\8/15\8-12-12-/17\8/15\8-12-12-/17\8/15\8-12-12-|
F#|---------------------------------------------------------------------|
B |---------------------------------------------------------------------|

Solo - Guitar 2
C#|----------------|
G#|----------------|
E |----------------|
B |-55--11--55--11-|
F#|-55--11--55--11-|
B |-55--11--55--11-|


Outro - Guitar 1
C#|-------------------------------------------|
G#|-------------------------------------------|
E |-------------------------------------------|
B |-------------------------------------------| Repeat once and stop on the first 1
F#|-------------------------------------------|
B |-3-5555-3-5555-3-5555-0-1111-0-1111-0-1111-|

Outro - Guitar 2
C#|----------------|
G#|----------------|
E |----------------|
B |-55--11--55--11-|
F#|-55--11--55--11-|
B |-55--11--55--11-|

Outro - Guitar 3
C#|-15~-----15~-----|
G#|-----18~-----18~-|
E |-----------------|
B |-----------------| repeat 2 more times
F#|-----------------|
B |-----------------|

-----------------------------------------------------------------------------
6                 Forever Now - Tokio Hotel
-----------------------------------------------------------------------------

Tabbed by:XxGuitarZer0xX

Email:Spongebobs400s@hotmail.com

Tuning:Standard


This is 100% correct, so have fun and enjoy!

Intro - Use phaser or flanger - This repeats many times through out the song
e|---------------------------------------------------|
B|---------------------------------------------------|
G|-66/4\6-6/4\6-6/4\6-6/4\6-66/4\6-6/4\6-6/4\6-6/4\6-|
D|-xx-x-x-x-x-x-x-x-x-x-x-x-xx-x-x-x-x-x-x-x-x-x-x-x-| Repeat until verse
A|-66/4\6-6/4\6-6/4\6-6/4\6-66/4\6-6/4\6-6/4\6-6/4\6-|
E|---------------------------------------------------|

Verse 1 - Easiest verse ever. just listen when to play it.
e|----------|
B|----------|
G|-------8~-|
D|---8---8~-| Repeat 6 times before chorus
A|-6---6-6~-|
E|----------|

Also there is a second and third guitar in there before the chorus, It is this.

e|-66666666-44444444-33333333-44444444--|
B|-44444444-44444444-44444444-44444444--|
G|--------------------------------------|
D|--------------------------------------|
A|--------------------------------------|
E|--------------------------------------|
I like to Palm Mute this. you don't have to though.
faded in the background
e|---------------------------------------------------|
B|---------------------------------------------------|
G|-66/4\6-6/4\6-6/4\6-6/4\6-66/4\6-6/4\6-6/4\6-6/4\6-|
D|-xx-x-x-x-x-x-x-x-x-x-x-x-xx-x-x-x-x-x-x-x-x-x-x-x-| Repeat until chorus
A|-66/4\6-6/4\6-6/4\6-6/4\6-66/4\6-6/4\6-6/4\6-6/4\6-|
E|---------------------------------------------------|

Chorus
e|-------------------------------------|
B|-------------------------------------|
G|----------------------------66666666-|
D|-99999999-66666666-44444444-66666666-| Repeat once more
A|-99999999-66666666-44444444-44444444-|
E|-77777777-44444444-22222222----------|


Intro repeats - Use phaser or flanger - This repeats many times through out the song
e|---------------------------------------------------|
B|---------------------------------------------------|
G|-66/4\6-6/4\6-6/4\6-6/4\6-66/4\6-6/4\6-6/4\6-6/4\6-|
D|-xx-x-x-x-x-x-x-x-x-x-x-x-xx-x-x-x-x-x-x-x-x-x-x-x-| Repeat until verse
A|-66/4\6-6/4\6-6/4\6-6/4\6-66/4\6-6/4\6-6/4\6-6/4\6-|
E|---------------------------------------------------|


Verse 2 - This is the only guitar part for the beginning of verse two
e|----|
B|----|
G|-88-|
D|-88-|
A|-66-|
E|----|

Then Play

e|----------------------------|
B|----------------------------|
G|----------------------------|
D|----------------------------|
A|-6666-8888-9999-11-11-11-11-|
E|----------------------------|


Chorus
e|-------------------------------------|
B|-------------------------------------|
G|----------------------------66666666-|
D|-99999999-66666666-44444444-66666666-| Repeat 3 more times
A|-99999999-66666666-44444444-44444444-|
E|-77777777-44444444-22222222----------|

Pre - Bridge - One guitar plays this
e|------------------------------------|
B|------------------------------------|
G|-8888888888888888888888888888888888-|
D|-8888888888888888888888888888888888-|
A|-6666666666666666666666666666666666-|
E|------------------------------------|
PM ********************************** (palm mute all these notes)


Another Guitar Plays this quietly
e|---------------------------------------------------|
B|---------------------------------------------------|
G|-66/4\6-6/4\6-6/4\6-6/4\6-66/4\6-6/4\6-6/4\6-6/4\6-|
D|-xx-x-x-x-x-x-x-x-x-x-x-x-xx-x-x-x-x-x-x-x-x-x-x-x-| Repeat until Bridge
A|-66/4\6-6/4\6-6/4\6-6/4\6-66/4\6-6/4\6-6/4\6-6/4\6-|
E|---------------------------------------------------|


Bridge - Guitar 1
e|-----------9-9------------------|
B|---7-7-------------7-7-----7-7--|
G|-6~-6-6--6~-6-6--6~-6-6--6~-4-4-|
D|--------------------------------| Repeat once more
A|--------------------------------|
E|--------------------------------|

Guitar 2
e|-------------|
B|-------------|
G|-4~-------6~-|
D|-4~-6~-4~-6~-| Repeat over and over during bridge.
A|-2~-6~-4~-4~-|
E|----4~-2~----|


Chorus
e|-------------------------------------|
B|-------------------------------------|
G|----------------------------66666666-|
D|-99999999-66666666-44444444-66666666-| Repeat 6 more times until outro
A|-99999999-66666666-44444444-44444444-|
E|-77777777-44444444-22222222----------|


Outro
e|-------------------------------------|
B|-------------------------------------|
G|-8888888888888888888888888888888888/-|
D|-8888888888888888888888888888888888/-|
A|-6666666666666666666666666666666666/-|
E|-------------------------------------|
PM ********************************** (palm mute all these notes)


Another Guitar Plays this quietly
e|---------------------------------------------------|
B|---------------------------------------------------|
G|-66/4\6-6/4\6-6/4\6-6/4\6-66/4\6-6/4\6-6/4\6-6/4\6-|
D|-xx-x-x-x-x-x-x-x-x-x-x-x-xx-x-x-x-x-x-x-x-x-x-x-x-| Repeat until end of song
A|-66/4\6-6/4\6-6/4\6-6/4\6-66/4\6-6/4\6-6/4\6-6/4\6-|
E|---------------------------------------------------|


There you go 100% correct, have fun and enjoy.

----------------------------------------------------------------------------
7			     Pain Of Love - Band Name
----------------------------------------------------------------------------

Tabbed by:XxGuitarZer0xX

Email:Spongebobs400s@hotmail.com

Tuning:Guitar 1 - Standard or Drop D
       Guitar 2 - Drop D


This tab is 100% correct, Your welcome!


Intro - the techno intro converted to guitar (Guitar 1 or 2 can play this)
e|-----------------------|
B|-----------------------|
G|-7-7-7-7-5-7-7-7-7-5-7-|
D|-----------------------|
A|-----------------------|
E|-----------------------|
This repeats through out the whole song, Use it when ever you want


Verse - Guitar 1
e|---------------------------------------------------------------------|
B|---------------------------------------------------------------------|
G|-7777777777777777777777777777-1010101010101010101010101010-777777777-|
D|-7777777777777777777777777777-1010101010101010101010101010-777777777-|
A|-5555555555555555555555555555-8-8-8-8-8-8-8-8-8-8-8-8-8-8--555555555-|
E|---------------------------------------------------------------------|
PM **************************** * * * * * * * * * * * * * *  *********

Guitar 2
e|--------------------------------------------------------|
B|--------------------------------------------------------|
G|--------------------------------------------------------|
D|-000000000000000000000000000-3333333333333-000000000000-|
A|-000000000000000000000000000-3333333333333-000000000000-|
D|-000000000000000000000000000-3333333333333-000000000000-|
PM *************************** ************* ************

Pre Chorus - Guitar 1
e|-------------------------------------|
B|-------------------------------------|
G|-77777777-22222222-55555555-22222222-|
D|-77777777-22222222-55555555-22222222-|
A|-55555555-00000000-33333333-00000000-|
E|-------------------------------------|


Guitar 2
e|-------------------------------------|
B|-------------------------------------|
G|-------------------------------------|
D|-00000000-77777777-33333333-77777777-|
A|-00000000-77777777-33333333-77777777-|
D|-00000000-77777777-33333333-77777777-|

Repeat this once more

Chorus - Guitar 1
e|---------------------------------------------------------------------------------|
B|---------------------------------------------------------------------------------|
G|-77777777-9999-10101010-7777------5555-777777777777-9999-1010101010101010-999999-|
D|-xxxxxxxx-xxxx-x-x-x-x--xxxx-7777-xxxx-xxxxxxxxxxxx-xxxx-x-x-x-x-x-x-x-x--xxxxxx-|
A|-55555555-7777-8-8-8-8--5555-xxxx-3333-555555555555-7777-8-8-8-8-8-8-8-8--777777-|
E|-----------------------------5555------------------------------------------------|

Guitar 2
e|---------------------------------------------------------------------------------|
B|---------------------------------------------------------------------------------|
G|-77777777-9999-10101010-7777-2222-5555-777777777777-9999-1010101010101010-999999-|
D|-77777777-9999-10101010-7777-2222-5555-777777777777-9999-1010101010101010-999999-|
A|-55555555-7777-8-8-8-8--5555-0000-3333-555555555555-7777-8-8-8-8-8-8-8-8--777777-|
D|---------------------------------------------------------------------------------|

Verse - Guitar 1
e|---------------------------------------------------------------------|
B|---------------------------------------------------------------------|
G|-7777777777777777777777777777-1010101010101010101010101010-777777777-|
D|-7777777777777777777777777777-1010101010101010101010101010-777777777-|
A|-5555555555555555555555555555-8-8-8-8-8-8-8-8-8-8-8-8-8-8--555555555-|
E|---------------------------------------------------------------------|
PM **************************** * * * * * * * * * * * * * *  *********

Guitar 2
e|--------------------------------------------------------|
B|--------------------------------------------------------|
G|--------------------------------------------------------|
D|-000000000000000000000000000-3333333333333-000000000000-|
A|-000000000000000000000000000-3333333333333-000000000000-|
D|-000000000000000000000000000-3333333333333-000000000000-|
PM *************************** ************* ************

Pre Chorus - Guitar 1
e|-------------------------------------|
B|-------------------------------------|
G|-77777777-22222222-55555555-22222222-|
D|-77777777-22222222-55555555-22222222-|
A|-55555555-00000000-33333333-00000000-|
E|-------------------------------------|


Guitar 2
e|-------------------------------------|
B|-------------------------------------|
G|-------------------------------------|
D|-00000000-77777777-33333333-77777777-|
A|-00000000-77777777-33333333-77777777-|
D|-00000000-77777777-33333333-77777777-|


Chorus - Guitar 1
e|---------------------------------------------------------------------------------|
B|---------------------------------------------------------------------------------|
G|-77777777-9999-10101010-7777------5555-777777777777-9999-1010101010101010-999999-|
D|-xxxxxxxx-xxxx-x-x-x-x--xxxx-7777-xxxx-xxxxxxxxxxxx-xxxx-x-x-x-x-x-x-x-x--xxxxxx-|
A|-55555555-7777-8-8-8-8--5555-xxxx-3333-555555555555-7777-8-8-8-8-8-8-8-8--777777-|
E|-----------------------------5555------------------------------------------------|

Guitar 2
e|---------------------------------------------------------------------------------|
B|---------------------------------------------------------------------------------|
G|-77777777-9999-10101010-7777-2222-5555-777777777777-9999-1010101010101010-999999-|
D|-77777777-9999-10101010-7777-2222-5555-777777777777-9999-1010101010101010-999999-|
A|-55555555-7777-8-8-8-8--5555-0000-3333-555555555555-7777-8-8-8-8-8-8-8-8--777777-|
D|---------------------------------------------------------------------------------|


Bridge - If you want to paly it standard, or Guitar 1
e|------------------------------------------------------------------------|
B|------------------------------------------------------------------------|
G|------------------------------------------------------------------------|
D|-55555555-88888888-33333333-77777777-55555555-88888888-7777777777777777-|
A|-55555555-88888888-33333333-77777777-55555555-88888888-7777777777777777-|
E|-33333333-66666666-11111111-55555555-33333333-66666666-5555555555555555-|
PM ******** ******** ******** ******** ******** ******** ****************

Drop D way or Guitar 2
e|------------------------------------------------------------------------|
B|------------------------------------------------------------------------|
G|------------------------------------------------------------------------|
D|-55555555-88888888-33333333-77777777-55555555-88888888-7777777777777777-|
A|-55555555-88888888-33333333-77777777-55555555-88888888-7777777777777777-|
D|-55555555-88888888-33333333-77777777-55555555-88888888-7777777777777777-|
PM ******** ******** ******** ******** ******** ******** ****************

Break with no guitar.

Pre Chorus - Guitar 1
e|-------------------------------------|
B|-------------------------------------|
G|-77777777-22222222-55555555-22222222-|
D|-77777777-22222222-55555555-22222222-|
A|-55555555-00000000-33333333-00000000-|
E|-------------------------------------|


Guitar 2
e|-------------------------------------|
B|-------------------------------------|
G|-------------------------------------|
D|-00000000-77777777-33333333-77777777-|
A|-00000000-77777777-33333333-77777777-|
D|-00000000-77777777-33333333-77777777-|


Repeat this once more


Chorus - Guitar 1
e|---------------------------------------------------------------------------------|
B|---------------------------------------------------------------------------------|
G|-77777777-9999-10101010-7777------5555-777777777777-9999-1010101010101010-999999-|
D|-xxxxxxxx-xxxx-x-x-x-x--xxxx-7777-xxxx-xxxxxxxxxxxx-xxxx-x-x-x-x-x-x-x-x--xxxxxx-|
A|-55555555-7777-8-8-8-8--5555-xxxx-3333-555555555555-7777-8-8-8-8-8-8-8-8--777777-|
E|-----------------------------5555------------------------------------------------|

Guitar 2
e|---------------------------------------------------------------------------------|
B|---------------------------------------------------------------------------------|
G|-77777777-9999-10101010-7777-2222-5555-777777777777-9999-1010101010101010-999999-|
D|-77777777-9999-10101010-7777-2222-5555-777777777777-9999-1010101010101010-999999-|
A|-55555555-7777-8-8-8-8--5555-0000-3333-555555555555-7777-8-8-8-8-8-8-8-8--777777-|
D|---------------------------------------------------------------------------------|


Outro
e|-----------------------|
B|-----------------------|
G|-7-7-7-7-5-7-7-7-7-5-7-|
D|-----------------------|
A|-----------------------|
E|-----------------------|

There you go full tab 100% correct

-----------------------------------------------------------------------------
8			     Dogs Unleashed - Tokio Hotel
-----------------------------------------------------------------------------

Tabbed by:XxGuitarZer0xX

Email:Spongebobs400s@hotmail.com

Tuning:Drop D


This is 100% correct.
If you have are having any trouble with the song, refer to my guitar cover.

http://www.youtube.com/watch?v=HdHLv0JHHCo - XxGuitarzer0xX

Thanks and ENJOY!


Intro
e|-----------------------------------------------|
B|-----------------------------------------------|
G|--------------------5----3------------5----3---|
D|-/10~-\6~----3-3-33---33---3---3-3-33---33---3-| Repeat once more
A|-----------------------------------------------|
D|-----------3-----------------3-----------------|
Palm Mute    * * * **   **   * * * * **   **   *


Verse 1
e|---------------------------------------------------------------------------------------|
B|---------------------------------------------------------------------------------------|
G|---------------------------------------------------------------------------------------|
D|-3-333-36-666-68-888-81-111-13-333-36-666-68-888-81-111-13-333-36-666-68-888-81-111-11-|
A|-3-333-36-666-68-888-81-111-13-333-36-666-68-888-81-111-13-333-36-666-68-888-81-111-11-|
D|-3-333-36-666-68-888-81-111-13-333-36-666-68-888-81-111-13-333-36-666-68-888-81-111-11-|
Palm Mute all of this

Then play


e|------------------------|
B|------------------------|
G|------------------------|
D|------------------------|
A|------------------------|
D|-/3~-33-/6~-66-/8~-8888-|
These are not Palm Muted


Verse 2
e|---------------------------------------------------------------------------------------|
B|---------------------------------------------------------------------------------------|
G|---------------------------------------------------------------------------------------|
D|-3-333-36-666-68-888-81-111-13-333-36-666-68-888-81-111-13-333-36-666-68-888-81-111-11-|
A|-3-333-36-666-68-888-81-111-13-333-36-666-68-888-81-111-13-333-36-666-68-888-81-111-11-|
D|-3-333-36-666-68-888-81-111-13-333-36-666-68-888-81-111-13-333-36-666-68-888-81-111-11-|
Palm Mute all of this


Then play


e|------------------------|
B|------------------------|
G|------------------------|
D|------------------------|
A|------------------------|
D|-/3~-33-/6~-66-/8~-8888-|
These are not Palm Muted

Pre - Chorus
e|---------------------|
B|---------------------|
G|---------------------|
D|-3333-6666-8888-1111-| Repeat once more
A|-3333-6666-8888-1111-|
D|-3333-6666-8888-1111-|


Chorus
e|-------------------------------------|
B|-------------------------------------|
G|-66666666-55555555-------------------|
D|-66666666-66666666-33333333-66666666-| Repeat once more
A|-44444444-33333333-33333333-66666666-|
D|-------------------33333333-66666666-|


Post - Chorus
e|-------------------------------------------------------|
B|-------------------------------------------------------|
G|-66666666-88888888-66666666-88888888-66666666-55555555-|
D|-66666666-88888888-66666666-88888888-66666666-66666666-|
A|-44444444-66666666-44444444-66666666-44444444-33333333-|
D|-------------------------------------------------------|


After Post - Chorus
e|-----------------------------------|
B|-----------------------------------|
G|-----------------------------------|
D|-3-333-36-666-68-888-8-(PICKSLIDE)-|
A|-3-333-36-666-68-888-8-(PICKSLIDE)-|
D|-3-333-36-666-68-888-8-(PICKSLIDE)-|


Then


e|------------------------|
B|------------------------|
G|------------------------|
D|------------------------|
A|------------------------|
D|-/3~-33-/6~-66-/8~-8888-|
These are not Palm Muted


Verse 3
e|---------------------------------------------------------------------------------------|
B|---------------------------------------------------------------------------------------|
G|---------------------------------------------------------------------------------------|
D|-3-333-36-666-68-888-81-111-13-333-36-666-68-888-81-111-13-333-36-666-68-888-81-111-11-|
A|-3-333-36-666-68-888-81-111-13-333-36-666-68-888-81-111-13-333-36-666-68-888-81-111-11-|
D|-3-333-36-666-68-888-81-111-13-333-36-666-68-888-81-111-13-333-36-666-68-888-81-111-11-|
Palm Mute all of this


Then play


e|------------------------|
B|------------------------|
G|------------------------|
D|------------------------|
A|------------------------|
D|-/3~-33-/6~-66-/8~-8888-|
These are not Palm Muted


Pre - Chorus
e|---------------------|
B|---------------------|
G|---------------------|
D|-3333-6666-8888-1111-| Repeat once more
A|-3333-6666-8888-1111-|
D|-3333-6666-8888-1111-|


Chorus
e|-------------------------------------|
B|-------------------------------------|
G|-66666666-55555555-------------------|
D|-66666666-66666666-33333333-66666666-| Repeat once more
A|-44444444-33333333-33333333-66666666-|
D|-------------------33333333-66666666-|


Post - Chorus
e|-------------------------------------------------------|
B|-------------------------------------------------------|
G|-66666666-88888888-66666666-88888888-66666666-55555555-|
D|-66666666-88888888-66666666-88888888-66666666-66666666-|
A|-44444444-66666666-44444444-66666666-44444444-33333333-|
D|-------------------------------------------------------|

Bridge
e|-------------------------------------|
B|-------------------------------------|
G|-------------------------------------|
D|-88888888-33333333-66666666-11111111-| repeat 3 more times
A|-88888888-33333333-66666666-11111111-|
D|-88888888-33333333-66666666-11111111-|


Intro repeated here
e|-----------------------------------------------|
B|-----------------------------------------------|
G|--------------------5----3------------5----3---|
D|-/10~-\6~----3-3-33---33---3---3-3-33---33---3-| Repeat once more
A|-----------------------------------------------|
D|-----------3-----------------3-----------------|
Palm Mute    * * * **   **   * * * * **   **   *


Chorus
e|-------------------------------------|
B|-------------------------------------|
G|-66666666-55555555-------------------|
D|-66666666-66666666-33333333-66666666-| Repeat once more
A|-44444444-33333333-33333333-66666666-|
D|-------------------33333333-66666666-|


Post - Chorus
e|-------------------------------------------------------|
B|-------------------------------------------------------|
G|-66666666-88888888-66666666-88888888-66666666-55555555-|
D|-66666666-88888888-66666666-88888888-66666666-66666666-|
A|-44444444-66666666-44444444-66666666-44444444-33333333-|
D|-------------------------------------------------------|


Outro
e|-------------------------------------|
B|-------------------------------------|
G|----------5----3------------5----3---|
D|---3-3-33---33---3---3-3-33---33---3-|
A|-------------------------------------|
D|-3-----------------3-----------------|

----------------------------------------------------------------------------
9			     Human Connect to Human - Tokio Hotel
----------------------------------------------------------------------------

Tabbed by:XxGuitarZer0xX

Email:Spongebobs400s@hotmail.com

Tuning:Guitar 1 - Drop D(fattest string isnt used with guitar 1)
       Guitar 2 - Drop D

This is 100% correct, worthy of your 5 star approval
Tabbed by ear.


Intro - Guitar 1
e|--------------------------------------|
B|--------------------------------------|
G|---11---9~---9---7~---4---2~--4-------|
D|-9----9----7---7----2---2---5---5/7~\-|
A|--------------------------------------|
E|--------------------------------------|

Guitar 2
e|-----------------------------|
B|-----------------------------|
G|-----------------------------|
D|-xxx22-xxx77-xxx1010-xxx1212-|
A|-xxx22-xxx77-xxx1010-xxx1212-|
E|-xxx22-xxx77-xxx1010-xxx1212-|

Verse - Guitar 1
e|--------------------------------------|
B|--------------------------------------|
G|---11---9~---9---7~---4---2~--4-------|
D|-9----9----7---7----2---2---5---5/7~\-|
A|--------------------------------------|
E|--------------------------------------|

Guitar 2 comes in after the verse is played once

e|-----------------------------|
B|-----------------------------|
G|-----------------------------|
D|-xxx22-xxx77-xxx1010-xxx1212-|
A|-xxx22-xxx77-xxx1010-xxx1212-|
E|-xxx22-xxx77-xxx1010-xxx1212-|

Pre Chorus - Guitar 1
e|-------------------|
B|-------------------|
G|---11---9~--9---7~-|
D|-9----9---7---7----|
A|-------------------|
E|-------------------|
After the 9 on the G the guitar volume goes down

Chorus - Guitar 1
e|-----------------------------------------------------------------------|
B|-----------------------------------------------------------------------|
G|-9999999999999999-22222222-5555555-9999999999999999-22222222-5555-7777-|
D|-9999999999999999-22222222-5555555-9999999999999999-22222222-5555-7777-|
A|-7777777777777777-00000000-3333333-7777777777777777-00000000-3333-5555-|
E|-----------------------------------------------------------------------|
Repeat this until the chorus ends

Guitar 2
e|-----------------------------------------------------------------------|
B|-----------------------------------------------------------------------|
G|---------------------------55555555--------------------------5555-7777-|
D|-2222222222222222-77777777-55555555-222222222222222-77777777-5555-7777-|
A|-2222222222222222-77777777-33333333-222222222222222-77777777-3333-5555-|
E|-2222222222222222-77777777----------222222222222222-77777777-----------|
Repeat this until the chorus ends

Post Chorus - Guitar 1
e|--------------------------|
B|--------------------------|
G|-99999999999999-5555-7777-|
D|-99999999999999-5555-7777-|
A|-77777777777777-3333-5555-|
E|--------------------------|

Guitar 2
e|-------------------------------------------------------------|
B|-------------------------------------------------------------|
G|-------------------------------------------------5555-7777-9/|
D|-------------------------------------------------5555-7777-9/|
A|-------------------------------------------------3333-5555-7/|
E|-2-2-5~5-2-2-5~5-2-2-5~5-2-2-5~5-2-2-5~5-2-2-5~5-------------|


Verse - Guitar 1
e|--------------------------------------|
B|--------------------------------------|
G|---11---9~---9---7~---4---2~--4-------|
D|-9----9----7---7----2---2---5---5/7~\-|
A|--------------------------------------|
E|--------------------------------------|

Guitar 2 comes in after the verse is played once

e|-----------------------------|
B|-----------------------------|
G|-----------------------------|
D|-xxx22-xxx77-xxx1010-xxx1212-|
A|-xxx22-xxx77-xxx1010-xxx1212-|
E|-xxx22-xxx77-xxx1010-xxx1212-|


Pre Chorus - Guitar 1
e|-------------------|
B|-------------------|
G|---11---9~--9---7~-|
D|-9----9---7---7----|
A|-------------------|
E|-------------------|


Chorus - Guitar 1
e|-----------------------------------------------------------------------|
B|-----------------------------------------------------------------------|
G|-9999999999999999-22222222-5555555-9999999999999999-22222222-5555-7777-|
D|-9999999999999999-22222222-5555555-9999999999999999-22222222-5555-7777-|
A|-7777777777777777-00000000-3333333-7777777777777777-00000000-3333-5555-|
E|-----------------------------------------------------------------------|
Repeat this until the chorus ends

Guitar 2
e|-----------------------------------------------------------------------|
B|-----------------------------------------------------------------------|
G|---------------------------55555555--------------------------5555-7777-|
D|-2222222222222222-77777777-55555555-222222222222222-77777777-5555-7777-|
A|-2222222222222222-77777777-33333333-222222222222222-77777777-3333-5555-|
E|-2222222222222222-77777777----------222222222222222-77777777-----------|
Repeat this until the chorus ends


Post Chorus - Guitar 1
e|--------------------------|
B|--------------------------|
G|-99999999999999-5555-7777-|
D|-99999999999999-5555-7777-|
A|-77777777777777-3333-5555-|
E|--------------------------|

Guitar 2
e|-------------------------------------------------------------|
B|-------------------------------------------------------------|
G|-------------------------------------------------5555-7777-9/|
D|-------------------------------------------------5555-7777-9/|
A|-------------------------------------------------3333-5555-7/|
E|-2-2-5~5-2-2-5~5-2-2-5~5-2-2-5~5-2-2-5~5-2-2-5~5-------------|

Repeat this one more time


Break with no guitar


Bridge
e|---------------------------------------------------------|
B|---------------------------------------------------------|
G|---------------------------------------------------------|
D|----22-2/88---8\-22-2/88---8\-22-2/88--8\-22-2/88-10-10~-|
A|----22-2/88---8\-22-2/88---8\-22-2/88--8\-22-2/88-10-10~-|
E|-8\-22-2/88---8\-22-2/88---8\-22-2/88--8\-22-2/88-10-10~-|


Chorus - Guitar 1
e|-----------------------------------------------------------------------|
B|-----------------------------------------------------------------------|
G|-9999999999999999-22222222-5555555-9999999999999999-22222222-5555-7777-|
D|-9999999999999999-22222222-5555555-9999999999999999-22222222-5555-7777-|
A|-7777777777777777-00000000-3333333-7777777777777777-00000000-3333-5555-|
E|-----------------------------------------------------------------------|
Repeat this until the chorus ends

Guitar 2
e|-----------------------------------------------------------------------|
B|-----------------------------------------------------------------------|
G|---------------------------55555555--------------------------5555-7777-|
D|-2222222222222222-77777777-55555555-222222222222222-77777777-5555-7777-|
A|-2222222222222222-77777777-33333333-222222222222222-77777777-3333-5555-|
E|-2222222222222222-77777777----------222222222222222-77777777-----------|
Repeat this until the chorus ends


Outro - Guitar 1
e|--------------------------|
B|--------------------------|
G|-99999999999999-5555-7777-|
D|-99999999999999-5555-7777-|
A|-77777777777777-3333-5555-|
E|--------------------------|
Repeat this until the song ends

Guitar 2
e|-----------------------------------------------------------|
B|-----------------------------------------------------------|
G|-------------------------------------------------5555-7777-|
D|-------------------------------------------------5555-7777-|
A|-------------------------------------------------3333-5555-|
E|-2-2-5~5-2-2-5~5-2-2-5~5-2-2-5~5-2-2-5~5-2-2-5~5-----------|
Repeat this until the song ends

END OF SONG

HOPE YOU ENJOYED MY TAB!

Just so everyone knows this repeats through out the whole song in many places, Throw it
where ever you would like to!
e|-------------------------------------------------|
B|-------------------------------------------------|
G|-------------------------------------------------|
D|-------------------------------------------------|
A|-------------------------------------------------|
E|-2-2-5~5-2-2-5~5-2-2-5~5-2-2-5~5-2-2-5~5-2-2-5~5-|

-----------------------------------------------------------------------------
10			     Hey You - Tokio Hotel
-----------------------------------------------------------------------------

Tabbed by:XxGuitarZer0xX

Email:Spongebobs400s@hotmail.com

Tuning:Drop D

100% correct. Rest of album tabs coming soon. Any questions, just leave a comment.

Intro
e|---------|
B|---------|
G|-x-x-xxx-|
D|-x-x-xxx-|  Repeat 7 times
A|-x-x-xxx-|
D|-x-x-xxx-|


Pre Chorus
e|-------------|
B|-------------|
G|-------------|
D|-xx-xx-xx-xx-|
A|-xx-xx-xx-xx-|
D|-xx-xx-xx-xx-|

Chorus
e|-----------------------------------|
B|-----------------------------------|
G|-------13/12-------12/11-----------|
D|-11-11-xx/xx-10-10-xx/x--3-3/--6-6-| Repeat once more
A|-11-11-11/10-10-10-10/9--3-3/--6-6-|
D|-11-11-------10-10-------3-3/--6-6-|


Verse
e|---------|
B|---------|
G|-x-x-xxx-|
D|-x-x-xxx-|  Repeat 4 times
A|-x-x-xxx-|
D|-x-x-xxx-|


Chorus
e|-----------------------------------|
B|-----------------------------------|
G|-------13/12-------12/11-----------|
D|-11-11-xx/xx-10-10-xx/x--3-3/--6-6-| Repeat once more
A|-11-11-11/10-10-10-10/9--3-3/--6-6-|
D|-11-11-------10-10-------3-3/--6-6-|


Post Chorus
e|--------------------------------------|
B|--------------------------------------|
G|-6666/8888-----------6666/8888--------|
D|-6666/8888-3333/6666-6666/8888-33333~-|
A|-4444/6666-3333/6666-4444/6666-33333~-|
D|-----------3333/6666-----------33333~-|


Bridge
e|-------------------------------------------------------------------------|
B|-------------------------------------------------------------------------|
G|-------------------------------------------------------------------------|
D|-3-4-5-6--6-5-4-3--3-4-5-6--6-5-4-3--3-4-5-6--6-5-4-3--3-4-5-6--6-5-4-3~-|
A|-3-4-5-6--6-5-4-3--3-4-5-6--6-5-4-3--3-4-5-6--6-5-4-3--3-4-5-6--6-5-4-3~-|
D|-3-4-5-6--6-5-4-3--3-4-5-6--6-5-4-3--3-4-5-6--6-5-4-3--3-4-5-6--6-5-4-3~-|


Pre Chorus - Different this time
e|------------|
B|------------|
G|------------|
D|--3-3/--6-6-|
A|--3-3/--6-6-|
D|--3-3/--6-6-|


Chorus
e|-----------------------------------|
B|-----------------------------------|
G|-------13/12-------12/11-----------|
D|-11-11-xx/xx-10-10-xx/x--3-3/--6-6-| Repeat once more
A|-11-11-11/10-10-10-10/9--3-3/--6-6-|
D|-11-11-------10-10-------3-3/--6-6-|


Post Chorus
e|--------------------------------------|
B|--------------------------------------|
G|-6666/8888-----------6666/8888--------|
D|-6666/8888-3333/6666-6666/8888-33333~-| Repeat once more
A|-4444/6666-3333/6666-4444/6666-33333~-|
D|-----------3333/6666-----------33333~-|


Outro
e|------------------------------------|
B|------------------------------------|
G|------------------------------------|
D|-3-4-5-6--6-5-4-3--3-4-5-6--6-5-4-3-|
A|-3-4-5-6--6-5-4-3--3-4-5-6--6-5-4-3-|
D|-3-4-5-6--6-5-4-3--3-4-5-6--6-5-4-3-|

100% correct and your welcome!

----------------------------------------------------------------------------
11			     Love And Death - Tokio Hotel
----------------------------------------------------------------------------


Tabbed by:XxGuitarZer0xX

Email:Spongebobs400s@hotmail.com

Tuning:Standard


This was all tabbed by ear.
Email me with corrections to this tab.
Although i think there are no mistakes!

Intro has a mistake but i cant figure out what it is, Anyone want ot help me
Dont rate Badly just for that intro Mistake

Intro - one guitar only
e|---------------------------------------------------|
B|---12-12-11-11-----12-12-11-11-9---9---9-----------|
G|-------------------------------x---------8---8---8-|
D|-8~--------------11~-----------6-6---6---x---------|
A|-----------------------------------------6-6---6---|
E|---------------------------------------------------|


Chords - D# - F - Bb - G#


Verse 1 - Guitar 1
e|---------------------------------------------------|
B|---12-12-11-11-----12-12-11-11-9---9---9-----------|
G|-------------------------------x---------8---8---8-|
D|-8~--------------11~-----------6-6---6---x---------| Repeat
A|-----------------------------------------6-6---6---|
E|---------------------------------------------------|

Verse 1 - Guitar 2
e|--------------|
B|--------------|
G|-8~-11~-3~-6~-|
D|-8~-11~-3~-6~-| Repeat
A|-6~-9-~-1~-4~-|
E|--------------|


Chords - D# - F - Bb - G#


Chorus 1 - Guitar 1 (Flanger or Phaser effect) Lyrics - Love and death....
e|-----------------------------|
B|-----------------------------|
G|-888888-666666---------------|
D|-888888-666666-666666-444444-| Repeat once more
A|-666666-444444-666666-444444-|
E|---------------444444-222222-|

Chorus 1 - Guitar 2 (Distortion)
e|------------------------------------|
B|------------------------------------|
G|-8-x8-x8-6-x6-x6--------------------|
D|-8-x8-x8-6-x6-x6-6-x6-x6-4-x4-x4-4~-| repeat once more
A|-6-x6-x6-4-x4-x4-6-x6-x6-4-x4-x4-4~-|
E|-----------------4-x4-x4-2-x2-x2-2~-|


Chords - D# - C# - G# - F


Post Chorus - Both Guitars - Lyrics - WITH MY HEART!
e|---------------------------------|
B|---------------------------------|
G|-8-x8-x8---------4-x4-x4---------|
D|-8-x8-x8-4-x4-x4-4-x4-x4-6-x6-x6-| Repeat once more
A|-6-x6-x6-4-x4-x4-2-x2-x2-6-x6-x6-|
E|---------2-x2-x2---------4-x4-x4-|


Chords - D# - F - B - G#


Verse 2 - Guitar 1
e|---------------------------------------------------|
B|---12-12-11-11-----12-12-11-11-8---9---9-----------|
G|-------------------------------x---------8---8---8-|
D|-8~--------------11~-----------6-6---6---x---------| Repeat
A|-----------------------------------------6-6---6---|
E|---------------------------------------------------|

Verse 2 - Guitar 2
e|--------------|
B|--------------|
G|-8~-11~-3~-6~-|
D|-8~-11~-3~-6~-| Repeat
A|-6~-9-~-1~-4~-|
E|--------------|


Chords - D# - F - Bb - G#


Chorus 2 - Guitar 1 (Flanger or Phaser effect) Lyrics - Love and death....
e|-----------------------------|
B|-----------------------------|
G|-888888-666666---------------|
D|-888888-666666-666666-444444-| Repeat once more
A|-666666-444444-666666-444444-|
E|---------------444444-222222-|

Chorus 2 - Guitar 2 (Distortion)
e|------------------------------------|
B|------------------------------------|
G|-8-x8-x8-6-x6-x6--------------------|
D|-8-x8-x8-6-x6-x6-6-x6-x6-4-x4-x4-4~-| repeat once more
A|-6-x6-x6-4-x4-x4-6-x6-x6-4-x4-x4-4~-|
E|-----------------4-x4-x4-2-x2-x2-2~-|


Chords - D# - C# - G# - F


Post Chorus - Both Guitars - Lyrics - WITH MY HEART!
e|---------------------------------|
B|---------------------------------|
G|-8-x8-x8---------4-x4-x4---------|
D|-8-x8-x8-4-x4-x4-4-x4-x4-6-x6-x6-| Repeat once more
A|-6-x6-x6-4-x4-x4-2-x2-x2-6-x6-x6-|
E|---------2-x2-x2---------4-x4-x4-|


Chords - D# - F - B - G#


Bridge - Both Guitars  Lyrics - All the pain that we've been through
e|----------------------------------------|
B|----------------------------------------|
G|-8888-6666-----------8888-6666----------|
D|-8888-6666-6666-4444-8888-6666-66666666-| Repeat
A|-6666-4444-6666-4444-6666-4444-66666666-|
E|-----------4444-2222-----------44444444-|


Chords - D# - C# - G# - F - D# - C# - G#


Slow part - one guitar only
e|-------------------------------------------|
B|---12-12-11-11-----12-12-11-11-8---9-------|
G|-------------------------------x---------8-|
D|-8~--------------11~-----------6-6---6---x-|
A|-----------------------------------------6-|
E|-------------------------------------------|


No Chords


Pre Chorus - Both Guitars Lyrics - WITH MY HEART!
e|---------------------------------|
B|---------------------------------|
G|-8-x8-x8---------4-x4-x4---------|
D|-8-x8-x8-4-x4-x4-4-x4-x4-6-x6-x6-| Repeat once more
A|-6-x6-x6-4-x4-x4-2-x2-x2-6-x6-x6-|
E|---------2-x2-x2---------4-x4-x4-|


Chords - D# - F - B - G#


Chorus 3 - Guitar 1 (Flanger or Phaser effect) Lyrics - Love and death....
e|-----------------------------|
B|-----------------------------|
G|-888888-666666---------------|
D|-888888-666666-666666-444444-| Repeat once more
A|-666666-444444-666666-444444-|
E|---------------444444-222222-|

Chorus 3 - Guitar 2 (Distortion)
e|------------------------------------|
B|------------------------------------|
G|-8-x8-x8-6-x6-x6--------------------|
D|-8-x8-x8-6-x6-x6-6-x6-x6-4-x4-x4-4~-| repeat once more
A|-6-x6-x6-4-x4-x4-6-x6-x6-4-x4-x4-4~-|
E|-----------------4-x4-x4-2-x2-x2-2~-|


Chords - D# - C# - G# - F


Outro
e|-----------------------------------------------------|
B|-----------------------------------------------------|
G|-----------------------------------------------------|
D|--------------4~-----------4~-----------4~-----------|
A|-6~-6-4h6-4h6--6-6-4h6-4h6--6-6-4h6-4h6--6-6-4h6-4h6-|
E|-----------------------------------------------------|
~ means slight bend then hit the 6 on the A string.

Chords - ???


| x  Mute note

----------------------------------------------------------------------------
12			     Zoom Into Me - Tokio Hotel
-----------------------------------------------------------------------------

Tabbed by:XxGuitarZer0xX

Email:Spongebobs400s@hotmail.com

Tuning:Standard with a Capo on the First fret

CAPO 1st FRET!

100% correct, so have fun

/\/\/\/\/\/\/\/\/\/\/\/\
||||||||||||||||||||||||

LOOK UP THAT IS IMPORTANT TO KNOW!

Almost done with Humanoid album tab just a few more to go!


Em
Is there anybody out there
        Cmaj7
Walking alone
Em
Is there anybody out there
           Cmaj7
Out in the cold
F   A
One heartbeat
F    A      G
Lost in the crowd
Em
Is there anybody shoutin’
                Cmaj7
What no one can hear
Em
Is there anybody drownin’
                   Cmaj7
Pulled down by the fear
F   A
I feel you
F      A     G
Don’t look away

C            Am
Zoom into me
Em           G
Zoom into me
C  Am         Em      G
I know you’re scared
F     C          G      D
When you can’t breathe
            F
I will be there
C         G
Zoom into me


Em
Is there anybody laughing
            Cmaj7
To kill the pain
Em
Is there anybody screamin’
            Cmaj7
The silence away
F     A    F     A    G
Just open your jaded eyes

C            Am
Zoom into me
Em           G
Zoom into me
C  Am         Em      G
I know you’re scared
F     C          G      D
When you can’t breathe
            F
I will be there
C         G
Zoom into me


F      C
Come closer
F      C     F ~
And closer…


F     C          G      D
When you can’t breathe
            F
I will be there
      C    G
Zoom into me


C            Am
Zoom into me
Em           G
Zoom into me
F
When the world
                      C
Cuts your soul into pieces
                   G   D
And you start to bleed
F     C          G     D
When you can’t breathe
           F
I will be there
C         G
Zoom into me


100% correct, so have fun

-----------------------------------------------------------------------------
13			     Automatisch - Tokio Hotel
-----------------------------------------------------------------------------


This is the german version of Automatic

Tabbed by:XxGuitarZer0xX

Email:Spongebobs400s@hotmail.com

Tuning:Drop D

Intro:
e|--------------------------------------------|
B|--------------------------------------------|
G|-----8------8------8---10-----10----10--10--|
D|-8-8---8--8---8--8---8----8-8-----8----8----|
A|--------------------------------------------|
D|--------------------------------------------|

Verse:
e|---------------------------------------|
B|-----------------------------8---8-----|
G|-----8-----8---8---8---8---8---8---8---|
D|-6-6---6-6---6---6---6---6-------------|
A|---------------------------------------|
D|---------------------------------------|

e|---------------------------------------|
B|-----------------------------8---8-----|
G|-----8-----8---8---8---8---8---8---8---|
D|-8-8---8-8---8---8---8---8-------------|
A|---------------------------------------|
D|---------------------------------------|
repeat this (the end is a bit different)

Chorus
e|---------------------------------------------------------------------|
B|---------------------------------------------------------------------|
G|---------------------------------------------------------------------|
D|-6666666666666-101010-888888888-101010-666666666666-101010-888888888-|
A|-6666666666666-101010-888888888-101010-666666666666-101010-888888888-|
D|-6666666666666-101010-888888888-101010-666666666666-101010-888888888-|

VERSE (almost the same, but with more notes and it goes quicker now)

Chorus (same as before)

First solo
e|----------------------------------------------------------------------------|
B|-1313131313131313----------------------15151515151515151515-----------------|
G|-----------------1212121212121212121212-------------------------------------|
D|-----------------------------------------------------------1313131313131313-|
A|----------------------------------------------------------------------------|
E|----------------------------------------------------------------------------|


Bridge
e|---------------------------------------------|
B|---------------------------------------------|
G|---------------------------------------------|
D|-66666666-55555555-1010101010101010-88888888-| Repeat 3 times
A|-66666666-55555555-1010101010101010-88888888-|
D|-66666666-55555555-1010101010101010-88888888-|


No Guitar (break)


Second Solo
e|---------------------------------------------------------|
B|---------------------------------------------------------|
G|-55555555--7777-8888--1212121212121212--1010101010101010-|
D|-xxxxxxxx--xxxx-xxxx--xxxxxxxxxxxxxxxx--x-x-x-x-x-x-x-x--|
A|-33333333--5555-6666--1010101010101010--8-8-8-8-8-8-8-8--|
D|---------------------------------------------------------|

... weinst du nicht
e|---------------------------------------------------------|
B|---------------------------------------------------------|
G|-55555555--7777-8888--1515151515151515--1010101010101010-|
D|-xxxxxxxx--xxxx-xxxx--xxxxxxxxxxxxxxxx--x-x-x-x-x-x-x-x--|
A|-33333333--5555-6666--1313131313131313--8-8-8-8-8-8-8-8--|
D|---------------------------------------------------------|


CHORUS
e|---------------------------------------------------------------------|
B|---------------------------------------------------------------------|
G|---------------------------------------------------------------------|
D|-6666666666666-101010-888888888-101010-666666666666-101010-888888888-|
A|-6666666666666-101010-888888888-101010-666666666666-101010-888888888-|
D|-6666666666666-101010-888888888-101010-666666666666-101010-888888888-|


Third Solo
e|----------------------------------------------------------------------------|
B|-1313131313131313----------------------15151515151515151515-----------------|
G|-----------------1212121212121212121212-------------------------------------|
D|-----------------------------------------------------------1313131313131313-|
A|----------------------------------------------------------------------------|
E|----------------------------------------------------------------------------|

e|---|
B|---|
G|---|
D|-6-|
A|-6-|
D|-6-|

Enjoy my tab!

-----------------------------------------------------------------------------
14			     Screamin - Tokio Hotel
-----------------------------------------------------------------------------

Tabbed by:XxGuitarZer0xX

Email:Spongebobs400s@hotmail.com

Tuning:Drop D

Here you go 100% correct!


Intro
e|-7/14~-----------------|
B|-------13/12-12/11-----|
G|-------------------13~-|
D|-----------------------| Repeat once more
A|-----------------------|
E|-----------------------|


Verse - PM means Palm Mute and the * is where to Palm Mute (Those are tens)
e|--------------------------------------------------------------------------------|
B|--------------------------------------------------------------------------------|
G|--------------------------------------------------------------------------------|
D|---9~------------------9~-------------------------------------------------------| Repeat
A|-9----99-9-10-10--10-9----99-9-10-10--10-9--------------------------------------| once more
E|-9----99-9-10-10--10-9----99-9-10-10--10-9---99-9-10-10--10-9---99-9-10-10--10--|
PM      ** * *  *   *       ** * *  *   *  *   ** * *  *   *  *   ** * *  *    *


PreChorus - Guitar 1
e|---------------------------|
B|---------------------------|
G|---------------------------|
D|-2222222222222222-55555555-|
A|-2222222222222222-55555555-|
E|-2222222222222222-55555555-|
PM **************** ********

Guitar 2
e|------------|
B|------------|
G|------------|
D|-2--2--5--5-|
A|-2--2--5--5-|
E|-2--2--5--5-|

Guitar 3 - Plays to the notes of Tom's singing.
e|---------------------------------2-22-22222-22-3/-|
B|----------5~--------------------------------------|
G|-4-4-4-7~----4~---4-4-4-7~-6~---------------------|
D|------------------------------7~------------------|
A|--------------------------------------------------|
E|--------------------------------------------------|


Chorus - Part 1 - Guitar 1
e|-----------------------------------------------------------------------|
B|-----------------------------------------------------------------------|
G|-------------------8888888888888888-------------------8888888888888888-|
D|-99999999-55555555-8888888888888888-99999999-55555555-8888888888888888-|
A|-99999999-55555555-6666666666666666-99999999-55555555-6666666666666666-|
E|-99999999-55555555------------------99999999-55555555------------------|

Chorus - Part 1 - Guitar 2
e|-----------------------------------------------------------------------|
B|-----------------------------------------------------------------------|
G|-----------------------------------------------------------------------|
D|-99999999-55555555-1111111111111111-99999999-55555555-1111111111111111-|
A|-99999999-55555555-1111111111111111-99999999-55555555-1111111111111111-|
E|-99999999-55555555-1111111111111111-99999999-55555555-1111111111111111-|

Chorus - Part 2 - Guitar 1
e|-----------------------------------------------------------------------|
B|-----------------------------------------------------------------------|
G|------------------------------------------------------8888888888888888-|
D|-99999999-55555555-6666666666666666-99999999-55555555-8888888888888888-|
A|-99999999-55555555-7777777777777777-99999999-55555555-6666666666666666-|
E|-99999999-55555555-6666666666666666-99999999-55555555------------------|

Chorus - Part 2 - Guitar 2
e|-----------------------------------------------------------------------|
B|-----------------------------------------------------------------------|
G|-----------------------------------------------------------------------|
D|-99999999-55555555-6666666666666666-99999999-55555555-1111111111111111-|
A|-99999999-55555555-7777777777777777-99999999-55555555-1111111111111111-|
E|-99999999-55555555-6666666666666666-99999999-55555555-1111111111111111-|


Verse - PM means Palm Mute and the * is where to Palm Mute (Those are tens)
e|--------------------------------------------------------------------------------|
B|--------------------------------------------------------------------------------|
G|--------------------------------------------------------------------------------|
D|---9~------------------9~-------------------------------------------------------| Repeat
A|-9----99-9-10-10--10-9----99-9-10-10--10-9--------------------------------------| once more
E|-9----99-9-10-10--10-9----99-9-10-10--10-9---99-9-10-10--10-9---99-9-10-10--10--|
PM      ** * *  *   *       ** * *  *   *  *   ** * *  *   *  *   ** * *  *    *


PreChorus - Guitar 1
e|---------------------------|
B|---------------------------|
G|---------------------------|
D|-2222222222222222-55555555-|
A|-2222222222222222-55555555-|
E|-2222222222222222-55555555-|
PM **************** ********

Guitar 2
e|------------|
B|------------|
G|------------|
D|-2--2--5--5-|
A|-2--2--5--5-|
E|-2--2--5--5-|

Guitar 3 - Plays to the notes of Tom's singing.
e|---------------------------------2-22-22222-22-3/-|
B|----------5~--------------------------------------|
G|-4-4-4-7~----4~---4-4-4-7~-6~---------------------|
D|------------------------------7~------------------|
A|--------------------------------------------------|
E|--------------------------------------------------|


Chorus - Part 1 - Guitar 1
e|-----------------------------------------------------------------------|
B|-----------------------------------------------------------------------|
G|-------------------8888888888888888-------------------8888888888888888-|
D|-99999999-55555555-8888888888888888-99999999-55555555-8888888888888888-|
A|-99999999-55555555-6666666666666666-99999999-55555555-6666666666666666-|
E|-99999999-55555555------------------99999999-55555555------------------|

Chorus - Part 1 - Guitar 2
e|-----------------------------------------------------------------------|
B|-----------------------------------------------------------------------|
G|-----------------------------------------------------------------------|
D|-99999999-55555555-1111111111111111-99999999-55555555-1111111111111111-|
A|-99999999-55555555-1111111111111111-99999999-55555555-1111111111111111-|
E|-99999999-55555555-1111111111111111-99999999-55555555-1111111111111111-|

Chorus - Part 2 - Guitar 1
e|-----------------------------------------------------------------------|
B|-----------------------------------------------------------------------|
G|------------------------------------------------------8888888888888888-|
D|-99999999-55555555-6666666666666666-99999999-55555555-8888888888888888-|
A|-99999999-55555555-7777777777777777-99999999-55555555-6666666666666666-|
E|-99999999-55555555-6666666666666666-99999999-55555555------------------|

Chorus - Part 2 - Guitar 2
e|-----------------------------------------------------------------------|
B|-----------------------------------------------------------------------|
G|-----------------------------------------------------------------------|
D|-99999999-55555555-6666666666666666-99999999-55555555-1111111111111111-|
A|-99999999-55555555-7777777777777777-99999999-55555555-1111111111111111-|
E|-99999999-55555555-6666666666666666-99999999-55555555-1111111111111111-|


Bridge
e|-------------------------------------|
B|-------------------------------------|
G|-------------------------------------|
D|-9~-99----9~-99----9~-99----9~-99----|
A|-9~-99----9~-99----9~-99----9~-99----|
E|-9~-99-xx-9~-99-xx-9~-99-xx-9~-99-xx-|


Solo- BY HERNANER (Dude you rock)!  (Just edited it because there were few mistakes)
e|-------------------10----10-------------------10----10|
B|-------------------0-----0--------------------0-----0-|
G|-------2-----------7-----7--------------------7-----7-|
D|---0-------0----00----00----3333/1111-000--00----00---| Repeat once more
A|-2---2---2---2--00----00----3333/1111-000--00----00---|
E|----------------00----00----3333/1111-000--00----00---|
PM                **    **                   **    **
                              -------------
                     All the dotted line notes require heavy distortion

Breakdown/Interlude
e|-------------------------------------------------------------------|
B|-------------------------------------------------------------------|
G|-44444444-22222222----------44444444-------------------------------|
D|-44444444-22222222-44444444-44444444-55555555-77777777-22222222222-|
A|-22222222-00000000-44444444-22222222-55555555-77777777-22222222222-|
E|-------------------44444444----------55555555-77777777-22222222222-|
PM ******** ******** ******** ******** ******** ******** ***********

Chorus - Part 1 - Guitar 1
e|-----------------------------------------------------------------------|
B|-----------------------------------------------------------------------|
G|-------------------8888888888888888-------------------8888888888888888-|
D|-99999999-55555555-8888888888888888-99999999-55555555-8888888888888888-|
A|-99999999-55555555-6666666666666666-99999999-55555555-6666666666666666-|
E|-99999999-55555555------------------99999999-55555555------------------|

Chorus - Part 1 - Guitar 2
e|-----------------------------------------------------------------------|
B|-----------------------------------------------------------------------|
G|-----------------------------------------------------------------------|
D|-99999999-55555555-1111111111111111-99999999-55555555-1111111111111111-|
A|-99999999-55555555-1111111111111111-99999999-55555555-1111111111111111-|
E|-99999999-55555555-1111111111111111-99999999-55555555-1111111111111111-|

Chorus - Part 2 - Guitar 1
e|-----------------------------------------------------------------------|
B|-----------------------------------------------------------------------|
G|------------------------------------------------------8888888888888888-|
D|-99999999-55555555-6666666666666666-99999999-55555555-8888888888888888-|
A|-99999999-55555555-7777777777777777-99999999-55555555-6666666666666666-|
E|-99999999-55555555-6666666666666666-99999999-55555555------------------|

Chorus - Part 2 - Guitar 2
e|-----------------------------------------------------------------------|
B|-----------------------------------------------------------------------|
G|-----------------------------------------------------------------------|
D|-99999999-55555555-6666666666666666-99999999-55555555-1111111111111111-|
A|-99999999-55555555-7777777777777777-99999999-55555555-1111111111111111-|
E|-99999999-55555555-6666666666666666-99999999-55555555-1111111111111111-|


Outro - repeats many different parts of the song and adds
e|-7/14~--------------|
B|-------13/12-11~-8~-|
G|--------------------|
D|--------------------| Repeat once more
A|--------------------|
E|--------------------|


-----------------------------------------------------------------------------15--|       
     In Your Shadow I Can Shine - Tokio Hotel
---------------------------------------------------------------------------------|
Credit to tab goes to JackiesGuitar

Enjoy this album tab, I had fun making it. Enjoy!\

Beautiful song! =]
if you want to watch my video as a reference the link's here:
http://www.youtube.com/watch?v=Ql0BNvzXqss
Enjoy!

Tuning: 1/2 step down! (e♭, a♭, d♭, g♭, b♭, e♭)

Intro:
e|--------------|--------------|--------------|--------------|
b|------0-----4-|------0-----0-|------0-----0-|------0-----0-|
g|------4-----0-|------4-----4-|------4-----4-|------4-----4-|
d|--------------|--------------|--------------|--------------|
a|--------------|--------------|--2-2---2-2---|--2-2---2-2---|
e|--4-4---4-4---|--0-0---0-0---|--------------|--------------|  x2

Verse 1:
e|--------------|--------------|--------------|--------------|
b|------0-----4-|------0-----0-|------0-----0-|------0-----0-|
g|------4-----0-|------4-----4-|------4-----4-|------4-----4-|
d|--------------|--------------|--------------|--------------|
a|--------------|--------------|--2-2---2-2---|--2-2---2-2---|
e|--4-4---4-4---|--0-0---0-0---|--------------|--------------|  x4
             I    Hate        my      life     I can’t…

e|--------------|--------------|--------------|--------------|
b|------0-----4-|------0-----0-|------0-----0-|------0-----0-|
g|------4-----0-|------4-----4-|------4-----4-|------4-----4-|
d|--------------|--------------|--------------|--------------|
a|--------------|--------------|--------------|--6-6---6-6---|
e|--0-0---0-0---|--2-2---2-2---|--4-4---4-4---|--------------|
 out of touch out of time just get lost without a sign as long as

e|--------------|--------------|
b|------0-----4-|------0-----0-|
g|------4-----0-|------4-----4-|
d|--------------|--------------|
a|--------------|--------------|
e|--0-0---0-0---|--2-2---2-2---|
 you’ll stay by my side in your shadow I can

e|--------------|--------------|--------------|--------------|
b|------0-----4-|------0-----0-|------0-----0-|------0-----0-|
g|------4-----0-|------4-----4-|------4-----4-|------4-----4-|
d|--------------|--------------|--------------|--------------|
a|--------------|--------------|--2-2---2-2---|--2-2---2-2---|
e|--4-4---4-4---|--0-0---0-0---|--------------|--------------|
shine…

e|--------------|--------------|
b|------0-----4-|------0-----0-|
g|------4-----0-|------4-----4-|
d|--------------|--------------|
a|--------------|--------------|
e|--4-4---4-4---|--0-0---0-0---|


Verse 2:
e|--------------|--------------|--------------|--------------|
b|------0-----4-|------0-----0-|------0-----0-|------0-----0-|
g|------4-----0-|------4-----4-|------4-----4-|------4-----4-|
d|--------------|--------------|--------------|--------------|
a|--------------|--------------|--2-2---2-2---|--2-2---2-2---|
e|--4-4---4-4---|--0-0---0-0---|--------------|--------------| x2
	you see my soul…

e|--------------|--------------|--------------|--------------|
b|------0-----4-|------0-----0-|------0-----0-|------0-----0-|
g|------4-----0-|------4-----4-|------4-----4-|------4-----4-|
d|--------------|--------------|--------------|--------------|
a|--------------|--------------|--------------|--6-6---6-6---|
e|--0-0---0-0---|--2-2---2-2---|--4-4---4-4---|--------------|
 into the dark..

e|--------------|--------------|
b|------0-----4-|------0-----0-|
g|------4-----0-|------4-----4-|
d|--------------|--------------|
a|--------------|--------------|
e|--0-0---0-0---|--2-2---2-2---|
 you’re the sun and I’m the moon


Chorus 2:
e|---------------|---------------|---------------|---------------|
b|---------------|---------------|---------------|---------------|
g|---------------|---------------|---------------|---------------|
d|---------------|---------------|---------------|---------------|
a|---------------|---------------|2-2-2-2-2-2-2-2|6-6-6-6-6-6-6-6|
e|4-4-4-4-4-4-4-4|0-0-0-0-0-0-0-0|---------------|---------------|

e|---------------|---------------|---------------|---------------|
b|---------------|---------------|---------------|---------------|
g|---------------|---------------|---------------|---------------|
d|---------------|---------------|---------------|---------------|
a|---------------|---------------|---------------|---------------|
e|4-4-4-4-4-4-4-4|0-0-0-0-0-0-0-0|2-2-2-2-2-2-2-2|2-2-2-2-2-2-2-2|


Bridge:
e|---------------|---------------|---------------|---------------|
b|---------------|---------------|---------------|---------------|
g|---------------|---------------|---------------|---------------|
d|6-6-6-6-6-6-6-6|2-2-2-2-2-2-2-2|4-4-4-4-4-4-4-4|4-4-4-4-4-4-4-4|
a|4-4-4-4-4-4-4-4|0-0-0-0-0-0-0-0|2-2-2-2-2-2-2-2|2-2-2-2-2-2-2-2|
e|---------------|---------------|---------------|---------------| x2

Chorus 3:
e|---------------|---------------|---------------|---------------|
b|---------------|---------------|---------------|---------------|
g|---------------|---------------|---------------|---------------|
d|6-6-6-6-6-6-6-6|2-2-2-2-2-2-2-2|4-4-4-4-4-4-4-4|---------------|
a|4-4-4-4-4-4-4-4|0-0-0-0-0-0-0-0|2-2-2-2-2-2-2-2|6-6-6-6-6-6-6-6|
e|---------------|---------------|---------------|4-4-4-4-4-4-4-4|

e|---------------|---------------|---------------|---------------|
b|---------------|---------------|---------------|---------------|
g|---------------|---------------|---------------|---------------|
d|6-6-6-6-6-6-6-6|2-2-2-2-2-2-2-2|4-4-4-4-4-4-4-4|4-4-4-4-4-4-4-4|
a|4-4-4-4-4-4-4-4|0-0-0-0-0-0-0-0|2-2-2-2-2-2-2-2|2-2-2-2-2-2-2-2|
e|---------------|---------------|---------------|---------------|

e|---------------|---------------|---------------|---------------|
b|---------------|---------------|---------------|---------------|
g|---------------|---------------|---------------|---------------|
d|6-6-6-6-6-6-6-6|2-2-2-2-2-2-2-2|4-4-4-4-4-4-4-4|---------------|
a|4-4-4-4-4-4-4-4|0-0-0-0-0-0-0-0|2-2-2-2-2-2-2-2|6-6-6-6-6-6-6-6|
e|---------------|---------------|---------------|4-4-4-4-4-4-4-4|

e|---------------|---------------|---------------|---------------|
b|---------------|---------------|---------------|---------------|
g|---------------|---------------|---------------|---------------|
d|6-6-6-6-6-6-6-6|2-2-2-2-2-2-2-2|4-4-4-4-4-4-4-4|4-4-4-4-4-4-4-4|
a|4-4-4-4-4-4-4-4|0-0-0-0-0-0-0-0|2-2-2-2-2-2-2-2|2-2-2-2-2-2-2-2|
e|---------------|---------------|---------------|---------------|


Share "Humanoid Album" by Tokio Hotel


TOP 10 TABS

FRESH NEW TABS

ALL ARTISTS
artist wiki

mp3bear.com
song lyrics / contact us / privacy policy / tabspace toolbar
Copyright © 2004 - 2014 TabSpace.com - All Rights Reserved.
song: humanoid album guitar tabs by tokio hotel

0.02