:: Guitar & Bass Tabs Make Home Page
A B C D E F G H I J K L M N O P Q R S T U V W X Y Z #

  for    

On TABSPACE
Info About This Tab
Artist: Panic At The Disco
Tab Type: Guitar
Rate This Tab!
Song: I Constantly Thank God For Esteban
Album: A Fever You Can't Sweat Out
Band: Panic! At The Disco
Tabber: Calum Neil (afirock74@hotmail.com)
Tuning: Drop d

Intro (Bass):
G|----------------------------------------------|---------|---------------|
D|----------------------------------------------|---------|---------------|
A|------------------0-1-------------------------|---------|---------------|
d|-5-5-5-5--5-5--1-1-----3-3-3-3--3-3--1-1-1--1-|-4-4--4--|-1-1-1--0-0-0--|

Intro:
e|-------------------------------|----------|---------------|
B|---6-4---3-----4-3--3----4-3--3|---3---3--|-4-4-4--3-3-3--|
G|--3----3-----3----3-----3---3--|--3---3---|-3-3-3--3-3-3--|
D|-5----------4----------3-------|-1---0----|-1-1-1--0-0-0--|
A|-------------------------------|----------|-1-1-1--0-0-0--|
d|-------------------------------|----------|-1-1-1--0-0-0--|

Verse:
e|--------------------------------------------------------------------|
B|---6-4---3-----4-3--3----3-1--1---3---4----6---4------3-1-1---3---4-|
G|--3----3-----3----3-----3---3----3---3----3-3--3-----3---3---3---3--|
D|-5----------4----------3--------1---0----5-----5----3-------1---0---|
A|--------------------------------------------------------------------|
d|--------------------------------------------------------------------|

Chorus:
e|--------------------------------------------------------------------|
B|-8-8-8-8-8-8-8-8-8--8-8-8-8-8-8-8-8--4-4-4-4-4-4-4--3-3-3-3-3-3-3---|
G|-7-7-7-7-7-7-7-7-7--7-7-7-7-7-7-7-7--3-3-3-3-3-3-3--3-3-3-3-3-3-3---|
D|-5-5-5-5-5-5-5-5-5--4-4-4-4-4-4-4-4--1-1-1-1-1-1-1--0-0-0-0-0-0-0---|
A|-5-5-5-5-5-5-5-5-5--4-4-4-4-4-4-4-4--1-1-1-1-1-1-1--0-0-0-0-0-0-0---|
d|-5-5-5-5-5-5-5-5-5--4-4-4-4-4-4-4-4--1-1-1-1-1-1-1--0-0-0-0-0-0-0---|

Post Chorus:
e|--------|
B|--------|
G|--------|
D|-5-3-5--|
A|-5-3-5--|
d|-5-3-5--|

Last Chorus:
e|-----------------------------------------------------------------|
B|-8-8-8-8-8-8-8-8-8--8-8-8-8-8-8-8-8--4-4-4-4-4-4-4--0--0--0--0---|
G|-7-7-7-7-7-7-7-7-7--7-7-7-7-7-7-7-7--3-3-3-3-3-3-3--3--3--3--3---|
D|-5-5-5-5-5-5-5-5-5--4-4-4-4-4-4-4-4--1-1-1-1-1-1-1--0--0--0--0---|
A|-5-5-5-5-5-5-5-5-5--4-4-4-4-4-4-4-4--1-1-1-1-1-1-1--0--0--0--0---|
d|-5-5-5-5-5-5-5-5-5--4-4-4-4-4-4-4-4--1-1-1-1-1-1-1--0--0--0--0---|

Solo:
e|---------------------------------------10-8-10-10---10-8-10-10-----------------------|
B|-8--11-10-11-11--8--11-10-11-11-10----7------------7-----------4-4-4-4-4--6-6-6-6-6--|
G|-----------------------------------11------------------------------------------------|
D|-------------------------------------------------------------------------------------|
A|-------------------------------------------------------------------------------------|
d|-------------------------------------------------------------------------------------|

e|-------------------------------|--------------|
B|-8-8-8-8-11-11-11-11--10~------|--------------|
G|-------------------------------|--------------|
D|-------------------------------|--5-5-3-5///--|
A|-------------------------------|--5-5-3-5///--|
d|-------------------------------|--5-5-3-5///--|




Share "I Constantly Thank God For Esteban" by Panic At The Disco


TOP 10 TABS

FRESH NEW TABS

ALL ARTISTS
artist wiki

mp3bear.com
song lyrics / contact us / privacy policy / tabspace toolbar
Copyright 2004 - 2014 TabSpace.com - All Rights Reserved.
song: i constantly thank god for esteban guitar tabs by panic at the disco

0.002