:: Guitar & Bass Tabs Make Home Page
A B C D E F G H I J K L M N O P Q R S T U V W X Y Z #

  for    

On TABSPACE
Info About This Tab
Artist: Tokio Hotel
Tab Type: Bass
Rate This Tab!
Note:This could also be played with Break Away
They both sound the same.

G------------------------|
D------------------------|
A------------------------| 
E-22-22-22---------------|
(go SUPER fast)
G------------------------|
D------------------------|
A-3-0-0-3-0-0-3-0-0------| 
E-------------------22----|

I've got other plans today.....

G------------------------|
D------------------------|
A------------------------| 
E-2/5~-2~-5~--2~-5~-2~-5~-|

...against the wall
G------------------------|
D------------------------|
A-3-0-0-3-0-0-3-0-0------| 
E-------------------22----|

I put all the blame on you...
G------------------------|
D------------------------|
A------------------------| 
E-2/5~-2~-5~--2~-5~-2~-5~-|

...make some noise
G------------------------|
D------------------------|
A-3-0-0-3-0-0-3-0-0------| 
E-------------------22----|

Chorus
G------------------------|
D------------------------|
A-3-3-3-3-3-3-5-5-5-5-5--| 3x
E------------------------|

BREAK AWAY!/Ich brech aus!

G------------------------|
D------------------------|
A-3-0-0-3-0-0-3-0-0------| 
E-------------------22----|

Go back to the verse and just repeat eveything

Eveything is just about the same from here.

~ (Hold note)
/ (slide)

This is an awsome song and if you keep practicing it you'll
be able to do the fast  part like a pro. 

Peace out.




Share "Ich Brech Aus" by Tokio Hotel


TOP 10 TABS

FRESH NEW TABS

ALL ARTISTS
artist wiki

mp3bear.com
song lyrics / contact us / privacy policy / tabspace toolbar
Copyright 2004 - 2014 TabSpace.com - All Rights Reserved.
song: ich brech aus bass tabs by tokio hotel

0.016