:: Guitar & Bass Tabs Make Home Page
A B C D E F G H I J K L M N O P Q R S T U V W X Y Z #

  for    

On TABSPACE
Info About This Tab
Artist: 30 Seconds To Mars
Tab Type: Bass
Difficulty: intermediate
Tuning: Drop D
Rate This Tab!
verse
G|------------------------------|
D|------------------------------|
A|-11[x16]--10[x16]--8[x32]-----|
E|------------------------------|

G|------------------------------|
D|------------------------------|
A|------------------------------|
E|-9[x16]---11[x16]---13[x16]---|

Chorus
G|---------------------------------------------------------|
D|---------6~h5~\311111111-6~h5~\311111111-----------------|
A|-44444444--------------------------------33333333-3~1~33-|
E|---------------------------------------------------------|

G|---------------------------------------------------------|
D|---------6~h5~\311111111-6~h5~\311111111-10[x14]---------|
A|-44444444------------------------------------------------|
E|---------------------------------------------------------| 

Verse 2
G|------------------------------|
D|------------------------------|
A|-11[x16]12---10[x16]---8[x16]-|
E|------------------------------|

G|------------------------------|
D|------------------------------|
A|------------------------------|
E|-9[x16]---11[x16]---13[x16]---|

Chorus
G|---------------------------------------------------------|
D|---------6~h5~\311111111-6~h5~\311111111-----------------|
A|-44444444--------------------------------33333333-3~1~33-|
E|---------------------------------------------------------|

G|---------------------------------------------------------|
D|---------6~h5~\311111111-6~h5~\311111111-10[x14]---------|
A|-44444444------------------------------------------------|
E|---------------------------------------------------------| 

Bridge-no bass

Chorus
G|---------------------------------------------------------|
D|---------6~h5~\311111111-6~h5~\311111111-----------------|
A|-44444444--------------------------------33333333-3~1~33-|
E|---------------------------------------------------------|

G|---------------------------------------------------------|
D|---------6~h5~\311111111-6~h5~\311111111-10[x14]---------|
A|-44444444------------------------------------------------|
E|---------------------------------------------------------| 

G|---------------------------------------------------------|
D|---------6~h5~\311111111-6~h5~\311111111-----------------|
A|-44444444--------------------------------33333333-3~1~33-|
E|---------------------------------------------------------|

G|---------------------------------------------------------|
D|---------6~h5~\311111111-6~h5~\311111111-10[x14]---------|
A|-44444444------------------------------------------------|
E|---------------------------------------------------------|

Outro
G|------------------------------|
D|------------------------------|
A|-11[x16]12---10[x16]---8[x16]-|
E|------------------------------|

G|------------------------------|
D|------------------------------|
A|------------------------------|
E|-9[x16]---11[x16]---13[x16]---|



| \  slide down
| h  hammer-on
| ~  let the note ring


Share "Ill Attack" by 30 Seconds To Mars


TOP 10 TABS

FRESH NEW TABS

ALL ARTISTS
artist wiki

mp3bear.com
song lyrics / contact us / privacy policy / tabspace toolbar
Copyright 2004 - 2014 TabSpace.com - All Rights Reserved.
song: ill attack bass tabs by 30 seconds to mars

0.018