:: Guitar & Bass Tabs Make Home Page
A B C D E F G H I J K L M N O P Q R S T U V W X Y Z #

  for    

On TABSPACE
Info About This Tab
Artist: Misc Television
Tab Type: Guitar
Rate This Tab!
Transcribed by Christian Ottem

Seinfield theme song.
I've transcribed the parts for the bass and the brass.
It's so easy -you'll learn it in a sec

bye for now
christian_ottem@hotmail.com

|-|-3--1------------|------------------------------|--------------------|
|-|-------3--1------|------------------------------|--------------------|
|-|-------------3---|-0----------------------------|--------------------|
|-|-----------------|----3--0-------------------0--|-3------------------|
|-|-----------------|----------3--1----------2-----|-----2----3--3--1---|
|-|-----------------|-----------------3---3--------|--------------------|
1 2                 3                              4

                                            C5     A#5  C5
|---------------------------|---------------8---8--6----8---|-----------|
|---------------------------|------------1--8---8--6----8---|-----------|
|---------------------------|-------------------------------|-----------|
|---------------------------|-------------------------------|-----------|
|-0-------------------0--0--|-1--2----3---------------------|-----------|
|------4----3--3--3---------|-------------------------------|-3---3-----|
5                           6                               7


------|-------------------|---------------------------|-----------------|
------|-------------------|---------------------------|-------------1---|
------|-------------------|---------------------------|-----------------|
---0--|-3-----------------|---------------------------|-----------------|
2-----|-----2----3--3--1--|-0-------------------0--0--|--1--2----3------|
------|-------------------|------4----3--3--3---------|-----------------|
      8                   9                           10

C5     A#5  A5
8---8--6----5---|---------------|--------------------|------------------|
8---8--6----5---|---------------|--------------------|------------------|
----------------|---------------|--------------------|------------------|
----------------|------------0--|--3-----------------|------------------|
----------------|---------2-----|------2----3--3--1--|--0---------------|
----------------|--3---3--------|--------------------|-------4----3-----|
                11              12                   13


-------------|-------------6-----|--3----------------------------|------|
-------------|-------------------|-----6--4----------------------|------|
-------------|-------------------|-----------5--3----------------|------|
-------------|-------------------|----------------------------0--|------|
-------0--0--|--1--2----3--------|-------------------------2-----|------|
3--3---------|-------------------|------------------3---3--------|------|
             14                  15                              16

                                                     C5  A#5  C5
------------------|----------------------------|--8--8---6----8---------|
------------------|----------------------------|--8--8---6----8---------|
------------------|----------------------------|------------------------|
3-----------------|----------------------------|------------------------|
----2----3--3--1--|--0-------------------0--0--|------------------------|
------------------|-------4----3--3--3---------|--6---------------7-----|
                  17                           18

D#5  C5
11---8------------|-----6--7--8-----------------------------------------|
11---8------------|--11-6--7--8-----------------------------------------|
------------------|--10-------0-----------------------------------------|
---------8--------|-----------------------------------------------------|
------------------|--8--8--9--------------------------------------------|
-----8------------|-----------------------------------------------------|
                  19
Gimmie a mail for suggestons/requests


Share "Jerry Seinfield Theme" by Misc Television


TOP 10 TABS

FRESH NEW TABS

ALL ARTISTS
artist wiki

mp3bear.com
song lyrics / contact us / privacy policy / tabspace toolbar
Copyright 2004 - 2014 TabSpace.com - All Rights Reserved.
song: jerry seinfield theme guitar tabs by misc television

0.036