:: Guitar & Bass Tabs Make Home Page
A B C D E F G H I J K L M N O P Q R S T U V W X Y Z #

  for    

On TABSPACE
Info About This Tab
Artist: Tokio Hotel
Tab Type: Guitar
Difficulty: novice
Rate This Tab!
----------------------------------------------------------------------------
             Jung Und Nicht Mehr Jugendfrei - Tokio Hotel
----------------------------------------------------------------------------

Intro

eb|----------------------------------------------------------------|
Bb|----5-----5---------4-----4---------5-----5---------4-----4-----|
Gb|--4-----4-----4---4-----4-----4---4-----4-----4---4-----4-----4-|
Db|----------------------------------------------------------------|
Ab|7-----7-----7---6-----6-----6---7-----7-----7---6-----6-----6---|
Eb|----------------------------------------------------------------|
  |                                                                |
eb|----------------------------------------------------------------|
Bb|----------------------------------------------------------------|
Gb|--------------------------------9-9-9-9-9-9-9-9-9-9-9-9-9-9-9-9-|
Db|--------------------------------9-9-9-9-9-9-9-9-9-9-9-9-9-9-9-9-|
Ab|--------------------------------7-7-7-7-7-7-7-7-7-7-7-7-7-7-7-7-|
Eb|----------------------------------------------------------------|

eb|----------------------------------------------------------------|
Bb|----5-----5---------4-----4---------4-----4---------5-----5-----|
Gb|--4-----4-----4---4-----4-----4---4-----4-----4---4-----4-----4-|
Db|--------------------------------6-----6-----6---7-----7-----7---|
Ab|7-----7-----7---6-----6-----6-----------------------------------|
Eb|----------------------------------------------------------------|
  |                                                                |
eb|----------------------------------------------------------------|
Bb|----------------------------------------------------------------|
Gb|9-9-9-9-9-9-9-9-------------------------------------------------|
Db|9-9-9-9-9-9-9-9-9-9-9-9-9-9-9-9-11111111111111117-7-7-7-7-7-7-7-|
Ab|7-7-7-7-7-7-7-7-9-9-9-9-9-9-9-9-11111111111111117-7-7-7-7-7-7-7-|
Eb|----------------7-7-7-7-7-7-7-7-9-9-9-9-9-9-9-9-5-5-5-5-5-5-5-5-|

eb|----------------------------------------------------------------|
Bb|----5-----5---------4-----4---------4-----4---------5-----5-----|
Gb|--4-----4-----4---4-----4-----4---4-----4-----4---4-----4-----4-|
Db|--------------------------------6-----6-----6---7-----7-----7---|
Ab|7-----7-----7---6-----6-----6-----------------------------------|
Eb|----------------------------------------------------------------|
  |                                                                |
eb|----------------------------------------------------------------|
Bb|----------------------------------------------------------------|
Gb|9-9-9-9-9-9-9-9-------------------------------------------------|
Db|9-9-9-9-9-9-9-9-9-9-9-9-9-9-9-9-6-6-6-6-6-6-6-6-7-7-7-7-7-7-7-7-|
Ab|7-7-7-7-7-7-7-7-9-9-9-9-9-9-9-9-6-6-6-6-6-6-6-6-7-7-7-7-7-7-7-7-|
Eb|----------------7-7-7-7-7-7-7-7-4-4-4-4-4-4-4-4-5-5-5-5-5-5-5-5-|

Verse

eb|----------------------------------------------------------------|
Bb|----5-----5---------4-----4---------4-----4---------5-----5-----|
Gb|--4-----4-----4---4-----4-----4---4-----4-----4---4-----4-----4-|
Db|--------------------------------6-----6-----6---7-----7-----7---|
Ab|7-----7-----7---6-----6-----6-----------------------------------|
Eb|----------------------------------------------------------------|

eb|----------------------------------------------------------------|
Bb|----5-----5---------4-----4---------4-----4---------5-----5-----|
Gb|--4-----4-----4---4-----4-----4---4-----4-----4---4-----4-----4-|
Db|--------------------------------6-----6-----6---7-----7-----7---|
Ab|7-----7-----7---6-----6-----6-----------------------------------|
Eb|----------------------------------------------------------------|

Pre-Chorus

   A#              Cm              Gm              G#
eb|----------------------------------------------------------------|
Bb|3---3---3---3---4---4---4---4---4---4---4---4---4---4---4---4---|
Gb|----------------------------------------------------------------|
Db|----------------------------------------------------------------|
Ab|----------------------------------------------------------------|
Eb|----------------------------------------------------------------|

Chorus

eb|----------------------------------------------------------------|
Bb|----5-----5---------4-----4---------4-----4---------5-----5-----|
Gb|--4-----4-----4---4-----4-----4---4-----4-----4---4-----4-----4-|
Db|--------------------------------6-----6-----6---7-----7-----7---|
Ab|7-----7-----7---6-----6-----6-----------------------------------|
Eb|----------------------------------------------------------------|
  |                                                                |
eb|----------------------------------------------------------------|
Bb|----------------------------------------------------------------|
Gb|9-9-9-9-9-9-9-9-------------------------------------------------|
Db|9-9-9-9-9-9-9-9-9-9-9-9-9-9-9-9-11111111111111117-7-7-7-7-7-7-7-|
Ab|7-7-7-7-7-7-7-7-9-9-9-9-9-9-9-9-11111111111111117-7-7-7-7-7-7-7-|
Eb|----------------7-7-7-7-7-7-7-7-9-9-9-9-9-9-9-9-5-5-5-5-5-5-5-5-|

eb|----------------------------------------------------------------|
Bb|----5-----5---------4-----4---------4-----4---------5-----5-----|
Gb|--4-----4-----4---4-----4-----4---4-----4-----4---4-----4-----4-|
Db|--------------------------------6-----6-----6---7-----7-----7---|
Ab|7-----7-----7---6-----6-----6-----------------------------------|
Eb|----------------------------------------------------------------|
  |                                                                |
eb|----------------------------------------------------------------|
Bb|----------------------------------------------------------------|
Gb|9-9-9-9-9-9-9-9-------------------------------------------------|
Db|9-9-9-9-9-9-9-9-9-9-9-9-9-9-9-9-6-6-6-6-6-6-6-6-7-7-7-7-7-7-7-7-|
Ab|7-7-7-7-7-7-7-7-9-9-9-9-9-9-9-9-6-6-6-6-6-6-6-6-7-7-7-7-7-7-7-7-|
Eb|----------------7-7-7-7-7-7-7-7-4-4-4-4-4-4-4-4-5-5-5-5-5-5-5-5-|

eb|----------------------------------------------------------------|
Bb|----5-----5---------4-----4---------4-----4---------5-----5-----|
Gb|--4-----4-----4---4-----4-----4---4-----4-----4---4-----4-----4-|
Db|--------------------------------6-----6-----6---7-----7-----7---|
Ab|7-----7-----7---6-----6-----6-----------------------------------|
Eb|----------------------------------------------------------------|
  |                                                                |
eb|----------------------------------------------------------------|
Bb|----------------------------------------------------------------|
Gb|9-9-9-9-9-9-9-9-------------------------------------------------|
Db|9-9-9-9-9-9-9-9-9-9-9-9-9-9-9-9-11111111111111117-7-7-7-7-7-7-7-|
Ab|7-7-7-7-7-7-7-7-9-9-9-9-9-9-9-9-11111111111111117-7-7-7-7-7-7-7-|
Eb|----------------7-7-7-7-7-7-7-7-9-9-9-9-9-9-9-9-5-5-5-5-5-5-5-5-|

eb|----------------------------------------------------------------|
Bb|----5-----5---------4-----4---------4-----4---------5-----5-----|
Gb|--4-----4-----4---4-----4-----4---4-----4-----4---4-----4-----4-|
Db|--------------------------------6-----6-----6---7-----7-----7---|
Ab|7-----7-----7---6-----6-----6-----------------------------------|
Eb|----------------------------------------------------------------|
  |                                                                |
eb|----------------------------------------------------------------|
Bb|----------------------------------------------------------------|
Gb|9-9-9-9-9-9-9-9-------------------------------------------------|
Db|9-9-9-9-9-9-9-9-9-9-9-9-9-9-9-9-6-6-6-6-6-6-6-6-7-7-7-7-7-7-7-7-|
Ab|7-7-7-7-7-7-7-7-9-9-9-9-9-9-9-9-6-6-6-6-6-6-6-6-7-7-7-7-7-7-7-7-|
Eb|----------------7-7-7-7-7-7-7-7-4-4-4-4-4-4-4-4-5-5-5-5-5-5-5-5-|

Verses

eb|----------------------------------------------------------------|
Bb|----5-----5---------4-----4---------4-----4---------5-----5-----|
Gb|--4-----4-----4---4-----4-----4---4-----4-----4---4-----4-----4-|
Db|--------------------------------6-----6-----6---7-----7-----7---|
Ab|7-----7-----7---6-----6-----6-----------------------------------|
Eb|----------------------------------------------------------------|

eb|----------------------------------------------------------------|
Bb|----5-----5---------4-----4---------4-----4---------5-----5-----|
Gb|--4-----4-----4---4-----4-----4---4-----4-----4---4-----4-----4-|
Db|--------------------------------6-----6-----6---7-----7-----7---|
Ab|7-----7-----7---6-----6-----6-----------------------------------|
Eb|----------------------------------------------------------------|

Pre-Chorus

eb|----------------------------------------------------------------|
Bb|3---3---3---3---4---4---4---4---4---4---4---4---4---4---4---4---|
Gb|----------------------------------------------------------------|
Db|----------------------------------------------------------------|
Ab|----------------------------------------------------------------|
Eb|----------------------------------------------------------------|
  |P.M.                                                            |
eb|----------------------------------------------------------------|
Bb|----------------------------------------------------------------|
Gb|----------------------------------------------------------------|
Db|9-9-9-9-9-9-9-9-11111111111111116-6-6-6-6-6-6-6-7-7-7-7-7-7-7-7-|
Ab|9-9-9-9-9-9-9-9-11111111111111116-6-6-6-6-6-6-6-7-7-7-7-7-7-7-7-|
Eb|7-7-7-7-7-7-7-7-9-9-9-9-9-9-9-9-4-4-4-4-4-4-4-4-5-5-5-5-5-5-5-5-|

Chorus

eb|----------------------------------------------------------------|
Bb|----5-----5---------4-----4---------4-----4---------5-----5-----|
Gb|--4-----4-----4---4-----4-----4---4-----4-----4---4-----4-----4-|
Db|--------------------------------6-----6-----6---7-----7-----7---|
Ab|7-----7-----7---6-----6-----6-----------------------------------|
Eb|----------------------------------------------------------------|
  |                                                                |
eb|----------------------------------------------------------------|
Bb|----------------------------------------------------------------|
Gb|9-9-9-9-9-9-9-9-------------------------------------------------|
Db|9-9-9-9-9-9-9-9-9-9-9-9-9-9-9-9-11111111111111117-7-7-7-7-7-7-7-|
Ab|7-7-7-7-7-7-7-7-9-9-9-9-9-9-9-9-11111111111111117-7-7-7-7-7-7-7-|
Eb|----------------7-7-7-7-7-7-7-7-9-9-9-9-9-9-9-9-5-5-5-5-5-5-5-5-|

eb|----------------------------------------------------------------|
Bb|----5-----5---------4-----4---------4-----4---------5-----5-----|
Gb|--4-----4-----4---4-----4-----4---4-----4-----4---4-----4-----4-|
Db|--------------------------------6-----6-----6---7-----7-----7---|
Ab|7-----7-----7---6-----6-----6-----------------------------------|
Eb|----------------------------------------------------------------|
  |                                                                |
eb|----------------------------------------------------------------|
Bb|----------------------------------------------------------------|
Gb|9-9-9-9-9-9-9-9-------------------------------------------------|
Db|9-9-9-9-9-9-9-9-9-9-9-9-9-9-9-9-6-6-6-6-6-6-6-6-7-7-7-7-7-7-7-7-|
Ab|7-7-7-7-7-7-7-7-9-9-9-9-9-9-9-9-6-6-6-6-6-6-6-6-7-7-7-7-7-7-7-7-|
Eb|----------------7-7-7-7-7-7-7-7-4-4-4-4-4-4-4-4-5-5-5-5-5-5-5-5-|

eb|----------------------------------------------------------------|
Bb|----5-----5---------4-----4---------4-----4---------5-----5-----|
Gb|--4-----4-----4---4-----4-----4---4-----4-----4---4-----4-----4-|
Db|--------------------------------6-----6-----6---7-----7-----7---|
Ab|7-----7-----7---6-----6-----6-----------------------------------|
Eb|----------------------------------------------------------------|
  |                                                                |
eb|----------------------------------------------------------------|
Bb|----------------------------------------------------------------|
Gb|9-9-9-9-9-9-9-9-------------------------------------------------|
Db|9-9-9-9-9-9-9-9-9-9-9-9-9-9-9-9-11111111111111117-7-7-7-7-7-7-7-|
Ab|7-7-7-7-7-7-7-7-9-9-9-9-9-9-9-9-11111111111111117-7-7-7-7-7-7-7-|
Eb|----------------7-7-7-7-7-7-7-7-9-9-9-9-9-9-9-9-5-5-5-5-5-5-5-5-|

eb|----------------------------------------------------------------|
Bb|----5-----5---------4-----4---------4-----4---------5-----5-----|
Gb|--4-----4-----4---4-----4-----4---4-----4-----4---4-----4-----4-|
Db|--------------------------------6-----6-----6---7-----7-----7---|
Ab|7-----7-----7---6-----6-----6-----------------------------------|
Eb|----------------------------------------------------------------|
  |                                                                |
eb|----------------------------------------------------------------|
Bb|----------------------------------------------------------------|
Gb|9-9-9-9-9-9-9-9-------------------------------------------------|
Db|9-9-9-9-9-9-9-9-9-9-9-9-9-9-9-9-6-6-6-6-6-6-6-6-7-7-7-7-7-7-7-7-|
Ab|7-7-7-7-7-7-7-7-9-9-9-9-9-9-9-9-6-6-6-6-6-6-6-6-7-7-7-7-7-7-7-7-|
Eb|----------------7-7-7-7-7-7-7-7-4-4-4-4-4-4-4-4-5-5-5-5-5-5-5-5-|

eb|----------------------------------------------------------------|
Bb|----5-----5---------4-----4---------4-----4---------5-----5-----|
Gb|--4-----4-----4---4-----4-----4---4-----4-----4---4-----4-----4-|
Db|--------------------------------6-----6-----6---7-----7-----7---|
Ab|7-----7-----7---6-----6-----6-----------------------------------|
Eb|----------------------------------------------------------------|
  |                                                                |
eb|----------------------------------------------------------------|
Bb|----------------------------------------------------------------|
Gb|9-9-9-9-9-9-9-9-------------------------------------------------|
Db|9-9-9-9-9-9-9-9-9-9-9-9-9-9-9-9-6-6-6-6-6-6-6-6-7-7-7-7-7-7-7-7-|
Ab|7-7-7-7-7-7-7-7-9-9-9-9-9-9-9-9-6-6-6-6-6-6-6-6-7-7-7-7-7-7-7-7-|
Eb|----------------7-7-7-7-7-7-7-7-4-4-4-4-4-4-4-4-5-5-5-5-5-5-5-5-|

eb|----------------------------------------------------------------|
Bb|----5-----5---------4-----4---------4-----4---------5-----5-----|
Gb|--4-----4-----4---4-----4-----4---4-----4-----4---4-----4-----4-|
Db|--------------------------------6-----6-----6---7-----7-----7---|
Ab|7-----7-----7---6-----6-----6-----------------------------------|
Eb|----------------------------------------------------------------|
  |                                                                |
eb|----------------------------------------------------------------|
Bb|----------------------------------------------------------------|
Gb|9-9-9-9-9-9-9-9-------------------------------------------------|
Db|9-9-9-9-9-9-9-9-9-9-9-9-9-9-9-9-6-6-6-6-6-6-6-6-7-7-7-7-7-7-7-7-|
Ab|7-7-7-7-7-7-7-7-9-9-9-9-9-9-9-9-6-6-6-6-6-6-6-6-7-7-7-7-7-7-7-7-|
Eb|----------------7-7-7-7-7-7-7-7-4-4-4-4-4-4-4-4-5-5-5-5-5-5-5-5-|

Break

eb|----------------------------------------------------------------|
Bb|----4-----4---------5-----5---------5-----5---------5-----5-----|
Gb|--4-----4-----4---4-----4-----4---4-----4-----4---4-----4-----4-|
Db|6-----6-----6-------------------7-----7-----7---7-----7-----7---|
Ab|----------------7----7-----7------------------------------------|
Eb|----------------------------------------------------------------|
  |                                                                |
eb|----------------------------------------------------------------|
Bb|----------------------------------------------------------------|
Gb|----------------------------------------------------------------|
Db|9-9-9-9-9-9-9-9-11111111111111117-7-7-7-7-7-7-7-7-7-7-7-7-7-7-7-|
Ab|9-9-9-9-9-9-9-9-11111111111111117-7-7-7-7-7-7-7-7-7-7-7-7-7-7-7-|
Eb|7-7-7-7-7-7-7-7-9-9-9-9-9-9-9-9-5-5-5-5-5-5-5-5-5-5-5-5-5-5-5-5-|

eb|----------------------------------------------------------------|
Bb|----4-----4---------5-----5---------5-----5---------5-----5-----|
Gb|--4-----4-----4---4-----4-----4---4-----4-----4---4-----4-----4-|
Db|6-----6-----6-------------------7-----7-----7---7-----7-----7---|
Ab|----------------7----7-----7------------------------------------|
Eb|----------------------------------------------------------------|
  |                                                                |
eb|----------------------------------------------------------------|
Bb|----------------------------------------------------------------|
Gb|----------------------------------------------------------------|
Db|9-9-9-9-9-9-9-9-11111111111111117-----6-----2---7-----6-----4---|
Ab|9-9-9-9-9-9-9-9-1111111111111111--------------------------------|
Eb|7-7-7-7-7-7-7-7-9-9-9-9-9-9-9-9---------------------------------|

Bridge-Part

   D#              A#              Cm              G#
eb|----------------------------------------------------------------|
Bb|----------------------------------------------------------------|
Gb|----------------------------------------------------------------|
Db|2---------------------------------------------------------------|
Ab|----------------------------------------------------------------|
Eb|----------------------------------------------------------------|

   D#              A#              G#
eb|----------------------------------------------------------------|
Bb|------5---------------5-----------------------------------------|
Gb|----------4---------------4-------------------------------------|
Db|----------------------------------------------------------------|
Ab|----------------------------------------------------------------|
Eb|----------------------------------------------------------------|

Chorus

eb|----------------------------------------------------------------|
Bb|----6-----6---------5-----5---------5-----5---------6-----6-----|
Gb|--5-----5-----5---5-----5-----5---5-----5-----5---5-----5-----5-|
Db|--------------------------------7-----7-----7---8-----8-----8---|
Ab|8-----8-----8---7-----7-----7-----------------------------------|
Eb|----------------------------------------------------------------|
  |                                                                |
eb|----------------------------------------------------------------|
Bb|----------------------------------------------------------------|
Gb|1010101010101010------------------------------------------------|
Db|1010101010101010101010101010101012121212121212128-8-8-8-8-8-8-8-|
Ab|8-8-8-8-8-8-8-8-101010101010101012121212121212128-8-8-8-8-8-8-8-|
Eb|----------------8-8-8-8-8-8-8-8-10101010101010106-6-6-6-6-6-6-6-|

eb|----------------------------------------------------------------|
Bb|----6-----6---------5-----5---------5-----5---------6-----6-----|
Gb|--5-----5-----5---5-----5-----5---5-----5-----5---5-----5-----5-|
Db|--------------------------------7-----7-----7---8-----8-----8---|
Ab|8-----8-----8---7-----7-----7-----------------------------------|
Eb|----------------------------------------------------------------|
  |                                                                |
eb|----------------------------------------------------------------|
Bb|----------------------------------------------------------------|
Gb|1010101010101010------------------------------------------------|
Db|101010101010101010101010101010107-7-7-7-7-7-7-7-8-8-8-8-8-8-8-8-|
Ab|8-8-8-8-8-8-8-8-10101010101010107-7-7-7-7-7-7-7-8-8-8-8-8-8-8-8-|
Eb|----------------8-8-8-8-8-8-8-8-5-5-5-5-5-5-5-5-6-6-6-6-6-6-6-6-|

eb|----------------------------------------------------------------|
Bb|----6-----6---------5-----5---------5-----5---------6-----6-----|
Gb|--5-----5-----5---5-----5-----5---5-----5-----5---5-----5-----5-|
Db|--------------------------------7-----7-----7---8-----8-----8---|
Ab|8-----8-----8---7-----7-----7-----------------------------------|
Eb|----------------------------------------------------------------|
  |                                                                |
eb|----------------------------------------------------------------|
Bb|----------------------------------------------------------------|
Gb|1010101010101010------------------------------------------------|
Db|101010101010101010101010101010107-7-7-7-7-7-7-7-8-8-8-8-8-8-8-8-|
Ab|8-8-8-8-8-8-8-8-10101010101010107-7-7-7-7-7-7-7-8-8-8-8-8-8-8-8-|
Eb|----------------8-8-8-8-8-8-8-8-5-5-5-5-5-5-5-5-6-6-6-6-6-6-6-6-|

eb|----------------------------------------------------------------|
Bb|----6-----6---------5-----5---------5-----5---------6-----6-----|
Gb|--5-----5-----5---5-----5-----5---5-----5-----5---5-----5-----5-|
Db|--------------------------------7-----7-----7---8-----8-----8---|
Ab|8-----8-----8---7-----7-----7-----------------------------------|
Eb|----------------------------------------------------------------|
  |                                                                |
eb|----------------------------------------------------------------|
Bb|----------------------------------------------------------------|
Gb|1010101010101010------------------------------------------------|
Db|101010101010101010101010101010107-7-7-7-7-7-7-7-8-8-8-8-8-8-8-8-|
Ab|8-8-8-8-8-8-8-8-10101010101010107-7-7-7-7-7-7-7-8-8-8-8-8-8-8-8-|
Eb|----------------8-8-8-8-8-8-8-8-5-5-5-5-5-5-5-5-6-6-6-6-6-6-6-6-|

eb|----------------------------------------------------------------|
Bb|----6-----6---------5-----5---------5-----5---------6-----6-----|
Gb|--5-----5-----5---5-----5-----5---5-----5-----5---5-----5-----5-|
Db|--------------------------------7-----7-----7---8-----8-----8---|
Ab|8-----8-----8---7-----7-----7-----------------------------------|
Eb|----------------------------------------------------------------|
  |                                                                |
eb|----------------------------------------------------------------|
Bb|----------------------------------------------------------------|
Gb|1010101010101010------------------------------------------------|
Db|101010101010101010101010101010107-7-7-7-7-7-7-7-8-8-8-8-8-8-8-8-|
Ab|8-8-8-8-8-8-8-8-10101010101010107-7-7-7-7-7-7-7-8-8-8-8-8-8-8-8-|
Eb|----------------8-8-8-8-8-8-8-8-5-5-5-5-5-5-5-5-6-6-6-6-6-6-6-6-|

eb|------------------------------------------------------------|
Bb|----6-----6---------5-----5---------5-----5-----------------|
Gb|--5-----5-----5---5-----5-----5---5-----5-----5-------------|
Db|--------------------------------7-----7-----7---------------|
Ab|8-----8-----8---7-----7-----7-------------------------------|
Eb|------------------------------------------------------------|
  |                                                            |
eb|------------------------------------------------------------|
Bb|------------------------------------------------------------|
Gb|1010101010101010--------------------------------------------|
Db|101010101010101010101010101010107-7-7-7-7-7-7-7-8-8-8-8-7---|
Ab|8-8-8-8-8-8-8-8-10101010101010107-7-7-7-7-7-7-7-8-8-8-8-7---|
Eb|----------------8-8-8-8-8-8-8-8-5-5-5-5-5-5-5-5-6-6-6-6-5---|
                                                   [ 3 ] [ 3 ]

eb|----------------------------------------------------------------|
Bb|----------------------------------------------------------------|
Gb|----------------------------------------------------------------|
Db|3---------------------------------------------------------------|
Ab|3---------------------------------------------------------------|
Eb|1---------------------------------------------------------------|
                                                
|[ 3 ] Triplet
============================================================================


Share "Jung Und Nicht Mehr Jugendfrei" by Tokio Hotel


TOP 10 TABS

FRESH NEW TABS

ALL ARTISTS
artist wiki

mp3bear.com
song lyrics / contact us / privacy policy / tabspace toolbar
Copyright 2004 - 2014 TabSpace.com - All Rights Reserved.
song: jung und nicht mehr jugendfrei guitar tabs by tokio hotel

0.01