:: Guitar & Bass Tabs Make Home Page
A B C D E F G H I J K L M N O P Q R S T U V W X Y Z #

  for    

On TABSPACE
Info About This Tab
Artist: Janis Joplin
Tab Type: Bass
Difficulty: intermediate
Rate This Tab!

  Intro:
G|--------|------------|--------|---------|---------|-----------|
D|-3---2--|--0—--0-2-3-|-5---3--|--2---0--|---------|-----------|
A|--------|------------|--------|---------|--3---1--|--1----1---|
E|--------|------------|--------|---------|---------|------1----|

     Verse
     F     Am        Bb                     F           Fmaj
G|--|------|---------|-------|-------------|-----------|----------|
D|--|3--3--|---------|-------|-----------2-|-3---3-----|-3--3-0---|
A|-3|------|-0--0---0|-1---1-|---1---1-3---|---------3-|--------3-|
E|--|------|---------|-------|--1----------|-----------|----------|

  F				    Bb		 /A   Gm
G|-----------|------------|---------|---------|---------|---------------|
D|-----------|-3--3-0-----|---------|---------|-5---5---|-5---5-5-5-5-5-|
A|-------0-3-|--------3-0-|-1---1---|-1--1-0--|--------5|---------------|
E|-1---1-----|------------|--------1|---------|---------|---------------|

  F		   Fmaj         Dm	   C			Bb
G|-----------|------------|----------|-------------|----------|--------|
D|-3---3---3-|-2---2---2--|-0---0---0|-------------|----------|--------|
A|--------3--|--------3---|----------|-3---3---3-2-|-1---1----|-1-----3|
E|-----------|------------|----------|-------------|---------1|--------|

  F              F/E     Dm           Gm  F      C   Dm    C  Bb
G|-----------|---------|------------|---------|---------|---------|-------|
D|-3---3-----|-3---2---|--0---0-2-3-|-5---3---|--2---0--|---------|-------|
A|---------3-|---------|------------|---------|---------|--3---1--|-1---1-|
E|-----------|---------|------------|---------|---------|---------|-------|
  3.time
   F  F/E     Dm  C     Bb            F
G|----------|---------|------|------|--------|
D|-3----2---|-0-------|------|------|-3------|
A|----------|-----3---|-1----|-1----|--------|
E|----------|---------|------|------|--------|




Share "Little Girl Blue" by Janis Joplin


TOP 10 TABS

FRESH NEW TABS

ALL ARTISTS
artist wiki

mp3bear.com
TabSpace.com / contact us / privacy policy / tabspace toolbar
Copyright 2004 - 2016 TabSpace.com - All Rights Reserved.
song: little girl blue bass tabs by janis joplin

0.004