:: Guitar & Bass Tabs Make Home Page
A B C D E F G H I J K L M N O P Q R S T U V W X Y Z #

  for    

On TABSPACE
Info About This Tab
Artist: Wasp
Tab Type: Guitar
Rate This Tab!
#----------------------------------PLEASE NOTE---------------------------------#
#This file is the author's own work and represents their interpretation of the #
#song. You may only use this file for private study, scholarship, or research. #
#------------------------------------------------------------------------------#

Author/Artist: W.A.S.P.
Title: L.O.V.E. Machine
Album: W.A.S.P.
Type: Guitar Tablature
Transcribed by: Jani Ylikangas
Email: jylikangas@yahoo.com

#------------------------------------------------------------------------------#
#Distributed by the site Chainsaw Charlie - http://chainsawcharlie.com.sapo.pt #
#------------------------------------------------------------------------------#

W.A.S.P.
'L.O.V.E. Machine'

transcribed by
  Jani Ylikangas (jylikangas@yahoo.com)

tune down half step

intro (play four times)
e|--------------------------|--------------------------------------------|
B|--------------------------|--------------------------------------------|
G|o--7--9-------12-9-------o|--9-----------------------------------------|
D|o--7--9-------12-9-------o|--9-----------------------------------------|
A|---5--7-------10-7--------|--7-----------------------------------------|
E|--------------------------|--------------------------------------------|

verse (first four bars bass plays E, C, D, E then guitar comes in...)
e|-----------------------------------------------------------------------|
B|-----------------------------------------------------------------------|
G|--12--7---9------9--5--------5--7-------7--9---------------------------|
D|--12--7---9------9--5--------5--7-------7--9---------------------------|
A|--10--5---7------7--3--------3--5-------5--7---------------------------|
E|-----------------------------------------------------------------------|

chorus
e|---------|-------------------------------------------------------------|
B|---------|-------------------------------------------------------------|
G|---12--7-|o-7--9-------7--9-------5---------7-------------------------o|
D|---12--7-|o-7--9--9-9--7--9--9-9--5---------7-------------------------o|
A|---10--5-|--5--7--7-7--5--7--7-7--3---------5--------------------------|
E|---------|--------0-0--------0-0---------------------------------------|

(these are the chords when Blackie sings "tonight, tonight")
e|-----------------------------------------------------------------------|
B|-----------------------------------------------------------------------|
G|---5----------7--------------------------------------------------------|
D|---5----------7--------------------------------------------------------|
A|---3----------5--------------------------------------------------------|
E|-----------------------------------------------------------------------|

solo backing (play triplets)
e|-----------------------------------------------------------------------|
B|-----------------------------------------------------------------------|
G|o--------------------------------------5---2--------------------------o|
D|o--4-4-4-4-4-4-4-4-4-4-4-4-4-4-4-4-4-4-5---2--------------------------o|
A|---2-2-2-2-2-2-2-2-2-2-2-2-2-2-2-2-2-2-3---0---------------------------|
E|-----------------------------------------------------------------------|
     * * * * * * * * * * * * * * * * * *

e|-----------------------------------------------------------------------|
B|-----------------------------------------------------------------------|
G|-----------------------------------------------------------------------|
D|---5-5-5-5-5-5-5-5-5-5-5-5-5-5-5-5-5-5-5-5-5-5-5-5---------------------|
A|---3-3-3-3-3-3-3-3-3-3-3-3-3-3-3-3-3-3-3-3-3-3-3-3---------------------|
E|-----------------------------------------------------------------------|
     * * * * * * * * * * * * * * * * * * * * * * * *  
e|-----------------------------------------------------------------------|
B|-----------------------------------------------------------------------|
G|---------------------------------------7---2---4-----------------------|
D|---5-5-5-5-5-5-5-5-5-5-5-5-5-5-5-5-5-5-7---2---4-----------------------|
A|---3-3-3-3-3-3-3-3-3-3-3-3-3-3-3-3-3-3-5---0---2-----------------------|
E|-----------------------------------------------------------------------|
     * * * * * * * * * * * * * * * * * *               

e|-----------------------------------------------------------------------|
B|-----------------------------------------------------------------------|
G|o--7--2--4------------------------------------------------------------o|
D|o--7--2--4------------------------------------------------------------o|
A|---5--0--2-------------------------------------------------------------|
E|-----------------------------------------------------------------------|

ending
e|-----------------------------------------------------------------------|
B|-----------------------------------------------------------------------|
G|o---4-------------5---5-----------------------------------------------o|
D|o---2-------------5---5-----0-3-2-0-----------------------------------o|
A|------------------3---3-------------3-2-0------------------------------|
E|-----------------------------------------------------------------------|

then an E5 chord and that's it!


Share "Love Machine" by Wasp


TOP 10 TABS

FRESH NEW TABS

ALL ARTISTS
artist wiki

mp3bear.com
song lyrics / contact us / privacy policy / tabspace toolbar
Copyright 2004 - 2014 TabSpace.com - All Rights Reserved.
song: love machine guitar tabs by wasp

0.008