:: Guitar & Bass Tabs Make Home Page
A B C D E F G H I J K L M N O P Q R S T U V W X Y Z #

  for    

On TABSPACE
Info About This Tab
Artist: Under The Influence Of Giants
Tab Type: Guitar
Difficulty: novice
Rate This Tab!
-------------------------------------------------------------------------------
			     Mama's Room -Under The Influence Of Giants
-------------------------------------------------------------------------------
Tabbed by: Bob Hashemi
Email:bobbyhashami@yahoo.com

Tuning: Standard
| /  slide up
| \  slide down
| h  hammer-on
| p  pull-off
| ~  vibrato
| +  harmonic
| x  Mute note

Intro:

E--------------------|
A--------------------|
D--------------------|
G--0-3-5p3h5-0-3-----|    x4
B--------------------|
E--------------------|

Verse:

E------------------------------------------------------------------------|
A------------------------------------------------------------------------|
D--------------------------------0-3-5p3h5-0-3-0-3-5p3h5-----------------|
G--0-3-5p3h5-0-3-0-3-5p3h5-0-3-------------------------------------------|
B------------------------------------------------------------------------|
E------------------------------------------------------------------------|

E------------------------------------------------------------------------|
A------------------------------------------------------------------------|
D----------------0-3-5p3h5-0-3--------------0-3-5-0-3--------------------|
G--0-3-5p3h5-0-3--------------0-3-5p3h5-0-3------------------------------|
B------------------------------------------------------------------------|
E------------------------------------------------------------------------|

Chorus:
the chorus is a bunch of synth, but if you had to play it on guitat it would be somthing like

E----------|
A----------|
D----------|
G-5--------|
B---4h6p4--|
E----------|

thats pretty much it, not much giutar in  the song mostly bass, and synth


Share "Mamas Room" by Under The Influence Of Giants


TOP 10 TABS

FRESH NEW TABS

ALL ARTISTS
artist wiki

mp3bear.com
song lyrics / contact us / privacy policy / tabspace toolbar
Copyright 2004 - 2014 TabSpace.com - All Rights Reserved.
song: mamas room guitar tabs by under the influence of giants

0.013