:: Guitar & Bass Tabs Make Home Page
A B C D E F G H I J K L M N O P Q R S T U V W X Y Z #

  for    

On TABSPACE
Info About This Tab
Artist: Opshop
Tab Type: Guitar
Rate This Tab!
*******PLEASE NOTE! This is my first ever tab, its taken me hours! so lets hope
that, that means its 80th time lucky with

all  my mistakes ive had to fix!

******************VER. 1

*
**tip - Count 4 sets of eights when 'x32' is needed


INTRO
    (F#)
e|------------------------- }
b|------------------------- }
g|-11---------------------- }
d|-11----x32--------------- }
a|-9----------------------- }
e|------------------------- }


    verse- 1
   (F#)        (D#)
e|---------------------------|
b|---------------------------|
g|-11------------8-----------|
d|-11--x-32------8---x16-----|
a|-9-------------6-----------|
e|---------------------------|
   (F#)         (D#)     (Cb)
e|----------------------------------- }
b|----------------------------------- }
g|-11------------8-------44---------- }
d|-11--x32-------8--x32--44---------- }
a|-9-------------6-------22---------- }
e|----------------------------------- }


    chorus 1
     (Cb)
e|---------------------------------------------------------------------- }
b|---------------------------------------------------------------------- }
g|-4444-44-88888888--------4444-44-88888888-666666666------------------- }
d|-4444-44-88888888---X2---4444-44-88888888-666666666------------------- }
a|-2222-22-66666666--------2222-22-66666666-444444444------------------- }
e|---------------------------------------------------------------------- }

verse 2

e|---------------------------|
b|---------------------------|
g|-11------------8-----------|
d|-11--x-32------8---x16-----|
a|-9-------------6-----------|
e|---------------------------|

e|----------------------------------- }
b|----------------------------------- }
g|-11------------8-------44---------- }
d|-11--x32-------8--x32--44---------- }
a|-9-------------6-------22---------- }
e|----------------------------------- }


chorus 2

     (Cb)
e|---------------------------------------------------------------------- }
b|---------------------------------------------------------------------- }
g|-4444-44-88888888--------4444-44-88888888-666666666------666666------- }
d|-4444-44-88888888---X2---4444-44-88888888-666666666---x2-666666------- }
a|-2222-22-66666666--------2222-22-66666666-444444444------444444------- }
e|---------------------------------------------------------------------- }

Bridge thingy

e|------------------------------ }
b|------------------------------ }
g|-2-2-1-------66-4------------- }  x2
d|-2-2-2---x2--66-4--x2--------- }
a|-2-2-2-------44-2------------- }
e|-----0------------------------ }

after the bridge thingy


******wait one beat per line/dash

e|-------------------------------------|
b|-------------------------------------|
g|-4---8---4---8---4---8---6-666666----|
d|-4---8---4---8---4---8---6-666666----|
a|-2---6---2---6---2---6---4-444444----|
e|-------------------------------------|

ending-ish

e|------------------------------------------------- }
b|----------------------------------- ------------- }
g|-4444-4-4-4-8888----4444-4-4-4-88886666666-6-66-- }
d|-4444-4-4-4-8888-x2-4444-4-4-4-88886666666-6-66-- }
a|-2222-2-2-2-6666----2222-2-2-2-66664444444-4-44-- }
e|------------------------------------------------- }

play this until song finishes


e|----------------------------------- }
b|----------------------------------- }
g|-11-------------------------------- }
d|-11-------------------------------- }
a|-9--------------------------------- }
e|----------------------------------- }

***once you do a quick play of the whole song then its a bit easier to add in all the 
stuff that i cant do on
computer


There we go i hope its right it could be a bit out of tune cause the computer speakers 
stuffed so everyone speaks like
chipmunks!lol its a bit hard to hear stuff right...



Please rate well!


Share "Maybe" by Opshop


TOP 10 TABS

FRESH NEW TABS

ALL ARTISTS
artist wiki

mp3bear.com
song lyrics / contact us / privacy policy / tabspace toolbar
Copyright 2004 - 2014 TabSpace.com - All Rights Reserved.
song: maybe guitar tabs by opshop

0.049