:: Guitar & Bass Tabs Make Home Page
A B C D E F G H I J K L M N O P Q R S T U V W X Y Z #

  for    

On TABSPACE
Info About This Tab
Artist: La Cuca
Tab Type: Bass
Difficulty: intermediate
Rate This Tab!
-------------------------------------------------------------------------------
			     Metrosexual - La Cuca
-------------------------------------------------------------------------------

Tabbed By : Tony
e-mail: im_fig@hotmail.com

Tuning: Standard


Buena cancion XD cualquier pinche sugerencia al correo

Intro
0:03
G|-11-9-8h9-8-------------11-9-8h9-8---------|
D|-------------14-12-14-------------14-12-14-|
A|-------------------------------------------|
E|-------------------------------------------|

G|-------------------------------------------------|
D|-------------------------------------------------|
A|-----2-2-4-----2-2-4-----2-2-4-----2-2-4---------|
E|-4-4-------4-4-------4-4-------4-4---------------|

G|-11-9-8h9-8-------------11-9-8h9-8---------|
D|-------------14-12-14-------------14-12-14-|
A|-------------------------------------------|
E|-------------------------------------------|

G|-------------------------------------------------|
D|-------------------------------------------------|
A|-----2-2-4-----2-2-4-----2-2-4-----2-2-4---------|
E|-4-4-------4-4-------4-4-------4-4---------------|

Verse
0:18
G|--------------------------------------------------------------------|
D|-----2-2-4-----2-2-4-----2-2-4-----2-2-4----------------------------|
A|-4-4-------4-4-------4-4-------4-4------------2-2-4---------2-2-4---|
E|------------------------------------------4-4-------4---4-4-------4-|x2
   Es un androide, un imbeciloide moderno..

Bridge
G|-11-9-8h9-8-------------11-9-8h9-8---------|
D|-------------14-12-14-------------14-12-14-|
A|-------------------------------------------|
E|-------------------------------------------|

G|-------------------------------------------------|
D|-------------------------------------------------|
A|-----2-2-4-----2-2-4-----2-2-4-----2-2-4---------|
E|-4-4-------4-4-------4-4-------4-4---------------|

Verse
G|--------------------------------------------------------------------|
D|-----2-2-4-----2-2-4-----2-2-4-----2-2-4----------------------------|
A|-4-4-------4-4-------4-4-------4-4------------2-2-4---------2-2-4---|
E|------------------------------------------4-4-------4---4-4-------4-|x2
   Se saca la ceja, se hidrata la piel de porcelana...

Chorus
G|---------------------------------------------------------------|
D|---------------------------------------------------------------|
A|-3-33-33--3-33-33--4-44-44-4-44-4p0--6-66-6-4-6--6-66-6-4-6----|
E|---------------------------------------------------------------|
   Podria parecer, que es una mujer pero es un Metrosexual

G|-------------------------------------------|
D|-------------------------------------------|
A|-4-44-44--4-44-4p0--6-66-6-4-6--6-66-6-4-6-|
E|-------------------------------------------|
   colageno y plastico, es un metrosexual

G|---------------------------------------------|
D|---------------------------------------------|
A|-4-44-44-5-3-2-0--6-66-6-4-6--6-66-6-4-6-----|
E|---------------------------------------------|
   nada es natural, es solo un metrosexual

Bridge
G|-11-9-8h9-8-------------11-9-8h9-8---------|
D|-------------14-12-14-------------14-12-14-|
A|-------------------------------------------|
E|-------------------------------------------|

G|-------------------------------------------------|
D|-------------------------------------------------|
A|-----2-2-4-----2-2-4-----2-2-4-----2-2-4---------|
E|-4-4-------4-4-------4-4-------4-4---------------|

Verse
G|--------------------------------------------------------------------|
D|-----2-2-4-----2-2-4-----2-2-4-----2-2-4----------------------------|
A|-4-4-------4-4-------4-4-------4-4------------2-2-4---------2-2-4---|
E|------------------------------------------4-4-------4---4-4-------4-|x2
  Gucci y armani, gwen estefani son su onda

Chorus
G|---------------------------------------------------------------|
D|---------------------------------------------------------------|
A|-3-33-33--3-33-33--4-44-44-4-44-4p0--6-66-6-4-6--6-66-6-4-6----|
E|---------------------------------------------------------------|
   Se quita lo naco razurandose el sobaco el es un Metrosexual

G|-------------------------------------------|
D|-------------------------------------------|
A|-4-44-44--4-44-4p0--6-66-6-4-6--6-66-6-4-6-|
E|-------------------------------------------|
   colageno y plastico, es un metrosexual

G|---------------------------------------------|
D|---------------------------------------------|
A|-4-44-44-5-3-2-0--6-66-6-4-6--6-66-6-4-6-----|
E|---------------------------------------------|
   nada es natural, es solo un metrosexual

Guitar solo
1:47
G|---------------------------------------------------------------|
D|---------------------------------------------------------------|
A|-444-4-4-4-44-44--222-2-2-2-22-22--444-4-4-4-44-44-------------|
E|----------------------------------------------------3-3-3-3-3-3|

G|------------------------------------------------------------------|
D|------------------------------------------------------------------|
A|-444-4-4-4-44-44--222-2-2-2-22-22--444-4-4-4-44-44---0-2-3-0-2h4~-|
E|----------------------------------------------------3-------------|

Bridge
2:02
G|--------------|
D|--------------|
A|-4~----2~-----|
E|-----------2~-|x8

G|--------------|
D|---6-----4----|
A|-4---4-2------|
E|-----------2~-|x4

Chorus
G|--------------------------|
D|--------------------------|
A|-6-66-6-4-6--6-66-6-4-6---|
E|--------------------------|
  Metrosexual! Metrosexual!

G|-------------------------------------------|
D|-------------------------------------------|
A|-4-44-44--4-44-4p0--6-66-6-4-6--6-66-6-4-6-|
E|-------------------------------------------|
   colageno y plastico, es un metrosexual

G|---------------------------------------------|
D|---------------------------------------------|
A|-4-44-44-5-3-2-0--6-66-6-4-6--6-66-6-4-6-----|
E|---------------------------------------------|
   nada es natural, es solo un metrosexual

G|---------------------------------------------|
D|---------------------------------------------|
A|-4-44-44-5-3-2-0--6-66-6-4-6--6-66-6-4-6-----|
E|---------------------------------------------|
   Que lindo puede ser un pinche metrosexual

   Ending
G|------------------------------------------------------------------------------|
D|------------------------------------------------------------------------------|
A|-4-44-44-5-3-2-0--4-44-44-5-3-2-0--4-44-44-5-3-2-0-6-66-6-4-6--6-66-6-4-6-----|
E|------------------------------------------------------------------------------|


| /  slide up
| \  slide down
| h  hammer-on
| p  pull-off
| ~  vibrato
| +  harmonic
| x  Mute note
===============================================================================


Share "Metrosexual" by La Cuca


TOP 10 TABS

FRESH NEW TABS

ALL ARTISTS
artist wiki

mp3bear.com
song lyrics / contact us / privacy policy / tabspace toolbar
Copyright 2004 - 2014 TabSpace.com - All Rights Reserved.
song: metrosexual bass tabs by la cuca

0.018