:: Guitar & Bass Tabs Make Home Page
A B C D E F G H I J K L M N O P Q R S T U V W X Y Z #

  for    

On TABSPACE
Info About This Tab
Artist: Misc Television
Tab Type: Guitar
Difficulty: intermediate
Rate This Tab!
The actual theme is played in Cm, not Am, so whack a capo on the 3rd fret if you want 
same key as the program. Use your own judgement for timing, ie when to slow down etc...

Any comments send to brob26@gmail.com

INTRO

e|-----------------|---------0-------|
B|-------1-------1-|-------1-0-------|
G|-----2-------2---|-----2---1-------|
D|---2-------2-----|---2-----0--3--2-|
A|-0---------------|---------2-------|
E|---------3-------|-1-------0-------|


MAIN RIFF

e|----------------|-------------|-0-----5---4-|-0-----------|
B|-0h1-0-1-0------|-0---------1-|-------------|-------------|
G|-----------2--0-|---2---------|-----2-------|---2-----2---|
D|----------------|-----2---2---|---2-----2---|-----2---2---|
A|-0--------------|-0-----------|-0-----------|-0-----------|
E|---------0------|-------0-----|-------0-----|-------0-----|


e|---------------|-------------|-------------|-------0-----|
B|-3-----------3-|-5-----------|-1-----0-----|-0-------0---|
G|---5-3---3-----|-------2-----|-----2---2---|-----1-----1-|
D|-------5-------|---2-------2-|---1-------4-|---0---------|
A|---------------|-0---0---0---|-------2-----|-------2-----|
E|-3-----3-------|-------0-----|-2-----------|-0-----------|


e|----------------|--------------|-0-----5---4h5p4-|-0-----------|
B|-0h1-0-1-0------|-0---------1--|-----------------|-------------|
G|-----------2--0-|---2----------|-----2-----------|---2---------|
D|----------------|-----2---2----|---2-----2-------|-----2---2---|
A|-0--------------|-0------------|-0---------------|-0-----------|
E|---------0------|-------0------|-------0---------|-------0-----|


e|---------------|-------------|-------------|---------5---|
B|-3-----------3-|-5-----------|-1-----0---1-|---------5---|
G|---5-3---3-----|-------2-----|-----2-------|-2---2-5-5---|
D|-------5-------|---2-------2-|---1-----1---|---2-----7---|
A|---------------|-0---0---0---|-------2-----|-0-------0---|
E|-3-----3-------|-------0-----|-2-----------|-------------|


BRIDGE

e|-------------|-------------|-------------|-------0-----|
B|-------3---1-|-0---1-------|-------------|---------0---|
G|-2---2---2---|-------2-----|-------------|-----------1-|
D|-0-0---0-----|---2-------2-|-3---3-2---0-|-2---2-------|
A|-------------|-0-----0-0---|-2-2---2-2---|---2---------|
E|-------------|-------------|-------------|-0-----0-----|


e|-------------|-------------|-------------|----------------|
B|-------3---1-|-0---1-------|-0-----------|-------0--------|
G|-2---2---2---|-------2-----|-----2-------|----------2--1--|
D|-0-0---0-----|---2-------2-|---1---3---3-|-2---2----2--0--|
A|-------------|-0-----0-0---|-2-----2-2---|---2------2--2--|
E|-------------|-------------|-------------|-0-----0--------|


MAIN RIFF AN OCTAVE HIGHER

e|-7h8-7-8-7-5----|-7-5-------8--|-12-------17----16-|-12---------------|
B|--------------8-|-----5---5----|-------13----------|----13------13----|
G|----------------|-------5------|----14-------14----|-------14---14----|
D|----------------|--------------|-------------------|------------------|
A|-0--------------|-0------------|--0----------------|--0---------------|
E|---------0------|-------0------|-----------0-------|----------0-------|


e|-10-8----------10-|-12--------------|-8-----7-----|-7-----------|
B|------11-8-11-----|---------10------|-----7-----7-|-------9-----|
G|--0---------------|----9----------9-|---8-----8---|-----7---7---|
D|---------0--------|------10----10---|-------------|---9-------9-|
A|------------------|--0--------------|-------------|-------7-----|
E|------------------|---------0-------|-7-----7-----|-0-----------|


e|-7h8-7-8-7-5----|-7-5-------8--|-12-------17----16-|-12---------------|
B|--------------8-|-----5---5----|-------13----------|----13------------|
G|----------------|-------5------|----14-------14----|-------14---14----|
D|----------------|--------------|-------------------|------------------|
A|-0--------------|-0------------|--0----------------|--0---------------|
E|---------0------|-------0------|-----------0-------|----------0-------|


e|-10-8----------10-|-12--------------|-8-----7---8-|-5---8-12-17---|
B|------11-8-11-----|---------10------|-----7-------|-5-------------|
G|--0---------------|----9----------9-|---8-----8---|-5-------------|
D|---------0--------|------10----10---|-------------|-7-------------|
A|------------------|--0--------------|-------------|-0-------------|
E|------------------|---------0-------|-7-----7-----|---------------|


Share "Midsomer Murders Theme" by Misc Television


TOP 10 TABS

FRESH NEW TABS

ALL ARTISTS
artist wiki

mp3bear.com
song lyrics / contact us / privacy policy / tabspace toolbar
Copyright 2004 - 2014 TabSpace.com - All Rights Reserved.
song: midsomer murders theme guitar tabs by misc television

0.009