:: Guitar & Bass Tabs Make Home Page
A B C D E F G H I J K L M N O P Q R S T U V W X Y Z #

  for    

On TABSPACE
Info About This Tab
Artist: 1st Lady
Tab Type: Guitar
Difficulty: novice
Rate This Tab!
Tab By Ray Makpah Jr
Tuning: Standard (EBGDAE)
Song: Missing You By First Lady
Verse 1                                                                  2x
E|-2---0-----------|-2--5-7-5-2-2--0--2-5-7-5-2----------------------------|
B|---------2----3--|-----------------------------2--5--3----3--3--3--------|
G|-----------2-----|-------------------------------------------------------|
D|-0---------------|-0-----------------------------------------------------|
A|-----4---0----2--|---------------4-------------0--0--2-------------------|
E|-----------------|-------------------------------------------------------|
Verse 2          4x                                                      2x
E|-2---0-----------|-2--5-7-5-2-2--0--2-5-7-5-2----------------------------|
B|---------2----3--|-----------------------------2--5--3----3--3--3--------|
G|-----------2-----|-------------------------------------------------------|
D|-0---------------|-0-----------------------------------------------------|
A|-----4---0----2--|---------------4-------------0--0--2-------------------|
E|-----------------|-------------------------------------------------------|

Verse 2 keeps repeating throughout the whole song
Hope you guys like it.
Have fun


Share "Missing You" by 1st Lady


TOP 10 TABS

FRESH NEW TABS

ALL ARTISTS
artist wiki

mp3bear.com
song lyrics / contact us / privacy policy / tabspace toolbar
Copyright 2004 - 2014 TabSpace.com - All Rights Reserved.
song: missing you guitar tabs by 1st lady

0.014