:: Guitar & Bass Tabs Make Home Page
A B C D E F G H I J K L M N O P Q R S T U V W X Y Z #

  for    

On TABSPACE
Info About This Tab
Artist: Tokio Hotel
Tab Type: Bass
Difficulty: novice
Rate This Tab!
                ~~Tuning  step down~~ (with 5-strings if you have)

Intro/Main riff
G -13----13-14----14-13-----9-----9-10----10--9----|
D -14-14-14-14-14-14-14-14-10-10-10-10-10-10-10-10-| {x2
A -------------------------------------------------|
E -------------------------------------------------|
B -------------------------------------------------|

Verse 1
G -13----13-14----14-13-----9-----9-10----10--9----|
D -14-14-14-14-14-14-14-14-10-10-10-10-10-10-10-10-| {x2
A -------------------------------------------------|
E -------------------------------------------------|
B -------------------------------------------------|

G ---------------------------------|
D -7-7-7-7-7-7-7-7-5-5-5-5-5-5-5-5-|    then main riff, twice, then...
A ---------------------------------|
E ---------------------------------|
B ---------------------------------|

G ---------------------------------|
D -7-7-7-7-7-7-7-7-7-7-7-7-7-7-7-7-|
A ---------------------------------|
E ---------------------------------|
B ---------------------------------|

Chorus
G -----------------------------------------------------------------|
D -----------------------------------------------------------------|
A -3-3-3-3-3-3-3-3-5-5-5-5-5-5-5-5-----------------2-2-2-2-2-2-2-2-|
E ---------------------------------0-0-0-0-0-0-0-0-----------------|
B -----------------------------------------------------------------|

G -----------------------------------------------------------------|
D -----------------------------------------------------------------|
A -3-3-3-3-3-3-3-3-5-5-5-5-5-5-5-5---------------------------------|
E ---------------------------------7-7-7-7-7-7-7-7-0-0-0-0-0-0-0-0-|
B -----------------------------------------------------------------|

G --------------------------------|
D --------------------------------|
A -3-3-3-3-3-3-3-3----------------|
E --------------------------------|
B -----------------3--------------|

Main riff
G -13----13-14----14-13-----9-----9-10----10--9----|
D -14-14-14-14-14-14-14-14-10-10-10-10-10-10-10-10-| {x2
A -------------------------------------------------|
E -------------------------------------------------|
B -------------------------------------------------|

Verse 2

G -13----13-14----14-13-----9-----9-10----10--9----|
D -14-14-14-14-14-14-14-14-10-10-10-10-10-10-10-10-| {x2
A -------------------------------------------------|
E -------------------------------------------------|
B -------------------------------------------------|

G ---------------------------------|
D -7-7-7-7-7-7-7-7-5-5-5-5-5-5-5-5-|    then main riff, twice, then...
A ---------------------------------|
E ---------------------------------|
B ---------------------------------|
this
G ---------------------------------|
D -7-7-7-7-7-7-7-7-7-7-7-7-7-7-7-7-|
A ---------------------------------|
E ---------------------------------|
B ---------------------------------|

Chorus
G -----------------------------------------------------------------|
D -----------------------------------------------------------------|
A -3-3-3-3-3-3-3-3-5-5-5-5-5-5-5-5-----------------2-2-2-2-2-2-2-2-|
E ---------------------------------0-0-0-0-0-0-0-0-----------------|
B -----------------------------------------------------------------|

G -----------------------------------------------------------------|
D -----------------------------------------------------------------|
A -3-3-3-3-3-3-3-3-5-5-5-5-5-5-5-5---------------------------------|
E ---------------------------------7-7-7-7-7-7-7-7-0-0-0-0-0-0-0-0-|
B -----------------------------------------------------------------|

Chorus
G -----------------------------------------------------------------|
D -----------------------------------------------------------------|
A -3-3-3-3-3-3-3-3-5-5-5-5-5-5-5-5-----------------2-2-2-2-2-2-2-2-|
E ---------------------------------0-0-0-0-0-0-0-0-----------------|
B -----------------------------------------------------------------|

G -----------------------------------------------------------------|
D -----------------------------------------------------------------|
A -3-3-3-3-3-3-3-3-5-5-5-5-5-5-5-5---------------------------------|
E ---------------------------------7-7-7-7-7-7-7-7-0-0-0-0-0-0-0-0-|
B -----------------------------------------------------------------|

G -----------------------------------------------------------------|
D -----------------------------------------------------------------|
A -3-3-3-3-3-3-3-3-5-5-5-5-5-5-5-5-----------------2-2-2-2-2-2-2-2-|
E ---------------------------------0-0-0-0-0-0-0-0-----------------|
B -----------------------------------------------------------------|

G ---------------------------------------|
D ---------------------------------------|
A -3-3-3-3-3-3-3-3-5-5-5-/15/17-17-17-17-|
E ---------------------------------------|
B ---------------------------------------|

Interlude
G ----------------------------------------------------------------------|
D ----------------------------------------------------------------------|
A -----------------3-3-3-3-3-3-3-3-----------------3-3-3/15-15-15-15-15-|
E -0-0-0-0-0-0-0-0-----------------0-0-0-0-0-0-0-0----------------------|
B ----------------------------------------------------------------------|

G -------------------------------------------------------------------------|
D -------------------------------------------------------------------------|
A -----------------3-3-3-3-3-3-3-3-----------------15-15-15-14-14-14-13-12-|
E -0-0-0-0-0-0-0-0-----------------0-0-0-0-0-0-0-0-------------------------|
B -------------------------------------------------------------------------|

G ------------------------------------------------------------------|
D ------------------------------------------------------------------|
A -----------------3-3-3-3-3-3-3-3-----------------3-3-3-3-3-3-3/8/-|
E -0-0-0-0-0-0-0-0-----------------0-0-0-0-0-0-0-0------------------|
B ------------------------------------------------------------------|

Interlude 2
G ------------------|
D ------------------|
A -15(hold)---(15\)-|
E ------------------|
B ------------------|

  Guitar... Guitar'N'bass
G ----|----|--------------------------------|
D ----|----|--------------------------------|
A ----|----|--------------------------------|
E ----|----|------------/15(hold)-----------|
B ----|----|-5---7---5--------------1(hold)-|

End with chorus and interlude 1... and then

G -------------------------|
D -------------------------|
A -15-15-X-15-X-3(hold)----|
E -------------------------|
B -------------------------|
IM 12, ROCK ON, YEAH!!!!


Share "Monsoon" by Tokio Hotel


TOP 10 TABS

FRESH NEW TABS

ALL ARTISTS
artist wiki

mp3bear.com
song lyrics / contact us / privacy policy / tabspace toolbar
Copyright 2004 - 2014 TabSpace.com - All Rights Reserved.
song: monsoon bass tabs by tokio hotel

0.024