:: Guitar & Bass Tabs Make Home Page
A B C D E F G H I J K L M N O P Q R S T U V W X Y Z #

  for    

On TABSPACE
Info About This Tab
Artist: 88 Fingers Louie
Tab Type: Guitar
Rate This Tab!
---------------------------------------------------------------------------
                   MY LITTLE WORLD – 88 Fingers Louie
---------------------------------------------------------------------------

Tabbed by: strungout777 
Email: manuel_ramones4life@gmx.at 

Intro: 
E|----------------------------------------------------------------------| 
B|----------------------------------------------------------------------| 
C|----------------------------------------------------------------------| 
D|--9-9-9-9--10-10-10----------7-7-7----------9-9-9---------------------| 
A|--7-7-7-7--10-10-10--10-9-7--7-7-7--10-9-7--9-9-9--10-9---------------| 
E|-----------8--8--8-----------5-5-5----------7-7-7---------------------| 

E|----------------------------------------------------------------------| 
B|----------------------------------------------------------------------| 
C|----------------------------------------------------------------------| 
D|--9-9-9-9----------10-10-10----------7-7-7----------9-9-9-9-9-9-------| 
A|--7-7-7-7--10-9-7--10-10-10--10-9-7--7-7-7--10-9-7--9-9-9-9-9-9-------| 
E|-------------------8--8--8-----------5-5-5----------7-7-7-7-7-7-------| 

E|----------------------------------------------------------------------| 
B|----------------------------------------------------------------------| 
C|----------------------------------------------------------------------| 
D|--9-9-9-9----------10-10-10----------7-7-7----------9-9-9-------------| 
A|--7-7-7-7--10-9-7--10-10-10--10-9-7--7-7-7--10-9-7--9-9-9--10-9-------| 
E|-------------------8--8--8-----------5-5-5----------7-7-7-------------| 

E|----------------------------------------------------------------------| 
B|----------------------------------------------------------------------| 
C|----------------------------------------------------------------------| 
D|--9-9-9-9--10-9-7----10-10-10--9--10-10--7-7-7-7--5-5-5-5--7-7-7-7----| 
A|--7-7-7-7------------10-10-10--9--10-10--7-7-7-7--5-5-5-5--5-5-5-5----| 
E|---------------------8--8--8---7--8--8---5-5-5-5--3-3-3-3-------------| 

Verse: 4x 
E|----------------------------------------------------------------------| 
B|----------------------------------------------------------------------|
C|----------------------------------------------------------------------|
D|--9-9-9--7--9-9--10-10-10--9--12-12-----------------------------------| 
A|--7-7-7--5--7-7--10-10-10--9--12-12-----------------------------------|
E|-----------------8--8--8---7--10-10-----------------------------------|

E|----------------------------------------------------------------------| 
B|----------------------------------------------------------------------| 
C|----------------------------------------------------------------------| 
D|--2~--5~--5~--2~--5~--7~--2~--5~--5~--2~--5--7------------------------| 
A|--2~--3~--5~--2~--3~--5~--2~--3~--5~--2~--3--5------------------------| 
E|--0~------3~--0~----------0~------3~--0~------------------------------| 

Chorus: 4x 
E|----------------------------------------------------------------------|
B|----------------------------------------------------------------------|
C|----------------------------------------------------------------------|
D|--9-9-9-9--10-10-10-10--7-7-7-7--9-9-9-9------------------------------|
A|--7-7-7-7--10-10-10-10--7-7-7-7--9-9-9-9--10-9-7----------------------|
E|-----------8--8--8--8---5-5-5-5--7-7-7-7------------------------------|

Verse: 4x  
E|----------------------------------------------------------------------| 
B|----------------------------------------------------------------------|
C|----------------------------------------------------------------------|
D|--9-9-9--7--9-9--10-10-10--9--12-12-----------------------------------| 
A|--7-7-7--5--7-7--10-10-10--9--12-12-----------------------------------|
E|-----------------8--8--8---7--10-10-----------------------------------|

E|----------------------------------------------------------------------| 
B|----------------------------------------------------------------------|
C|----------------------------------------------------------------------| 
D|--2~--5~--5~--2~--5~--7~--2~--5~--5~--2~--5--7------------------------| 
A|--2~--3~--5~--2~--3~--5~--2~--3~--5~--2~--3--5------------------------| 
E|--0~------3~--0~----------0~------3~--0~------------------------------| 

Chorus: 4x 
E|----------------------------------------------------------------------|
B|----------------------------------------------------------------------|
C|----------------------------------------------------------------------|
D|--9-9-9-9--10-10-10-10--7-7-7-7--9-9-9-9------------------------------|
A|--7-7-7-7--10-10-10-10--7-7-7-7--9-9-9-9--10-9-7----------------------|
E|-----------8--8--8--8---5-5-5-5--7-7-7-7------------------------------|

Verse: 4x
E|----------------------------------------------------------------------|
B|----------------------------------------------------------------------|
C|----------------------------------------------------------------------|
D|--9-9-9--7--9-9--10-10-10--9--12-12-----------------------------------|
A|--7-7-7--5--7-7--10-10-10--9--12-12-----------------------------------|
E|-----------------8--8--8---7--10-10-----------------------------------|

Bridge: 4x
E|----------------------------------------------------------------------|
B|----------------------------------------------------------------------|
C|----------------------------------------------------------------------|
D|--9-9-9-9--10-10-10-10--7-7-7-7--9-9-9-9------------------------------|
A|--7-7-7-7--10-10-10-10--7-7-7-7--9-9-9-9------------------------------|
E|-----------8--8--8--8---5-5-5-5--7-7-7-7------------------------------|
      x x x     x  x  x     x x x    x x x
Listen to the song to get out the rhythm. Its not very difficult. 


Solo:
Guitar1: Solo 
E|-----------------------------15----------------------------------------| 
B|------------12------17-15-17----17-------------------------------------| 
C|--9-12-9-12------16-----------------9-12-9-----9-----------------------| 
D|--------------------------------------------12---9-12-9----------------| 
A|---------------------------------------------------------12-10---------| 
E|-----------------------------------------------------------------------| 

E|-----------------------------15--------18---------18-------18----------| 
B|------------12------17-15-17----17-17-----21--18-----21-18----21-18----| 
C|--9-12-9-12------16----------------------------------------------------| 
D|-----------------------------------------------------------------------| 
A|-----------------------------------------------------------------------| 
E|-----------------------------------------------------------------------| 

E|--18--------18--------18-----------------------------------------------| 
B|-----21-18-----21-18-----21-18-----------------------------------------| 
C|-----------------------------------------------------------------------| 
D|-----------------------------------------------------------------------| 
A|----------------------------------7-7-7-10-7--5-5-5--7-7-7--10-10------| 
E|-----------------------------------------------------------------------| 

E|-----------------------------------------------------------------------| 
B|-----------------------------------------------------------------------| 
C|-----------------------------------------------------------------------| 
D|-----------------------------------------------------------------------| 
A|-10-10-10-10--7-7-5-7-7-7---7-7-7-10--7--5--7-7--5--5-7--5-------------| 
E|-----------------------------------------------------------------------| 

E|-----------------------------------------------------------------------|
B|-----------------------------------------------------------------------|
C|-------------12-12-12-12--14-14-14-14----------------------------------|
D|--2--------------------------------------------------------------------|
A|-----5-3-2-------------------------------------------------------------|
E|-----------------------------------------------------------------------|

Guitar2: during Solo
E|-----------------------------------------------------------------------| 
B|-----------------------------------------------------------------------| 
C|-----------------------------------------------------------------------| 
D|--2~--5~--5~--2~--5~--7~--2~--5~--5~--2~--5--7-------------------------| 
A|--2~--3~--5~--2~--3~--5~--2~--3~--5~--2~--3--5-------------------------| 
E|--0~------3~--0~----------0~------3~--0~-------------------------------| 

E|-----------------------------------------------------------------------|
B|-----------------------------------------------------------------------|
C|-----------------------------------------------------------------------|
D|--9-9-9--12--9-9--10-10-10--12--12-12----------------------------------| 
A|--7-7-7--10--7-7--10-10-10--10--12-12----------------------------------|
E|------------------8--8--8-------10-10----------------------------------|

E|-----------------------------------------------------------------------|
B|-----------------------------------------------------------------------|
C|-----------------------------------------------------------------------|
D|--9-9-9--12--9-9--10-10-10--9--12-12-----------------------------------| 
A|--7-7-7--10--7-7--10-10-10--9--12-12-----------------------------------|
E|------------------8--8--8---7--10-10-----------------------------------|

E|-----------------------------------------------------------------------|
B|-----------------------------------------------------------------------|
C|-----------------------------------------------------------------------|
D|--9-9-9--12--9-9--10-10-10--12--12-12----------------------------------| 
A|--7-7-7--10--7-7--10-10-10--10--12-12----------------------------------|
E|------------------8--8--8-------10-10----------------------------------|

E|-----------------------------------------------------------------------|
B|-----------------------------------------------------------------------|
C|-----------------------------------------------------------------------|
D|--9-9-9--12--9-9--10-10-10--12-12-12-----------------------------------| 
A|--7-7-7--10--7-7--10-10-10--12-12-12-----------------------------------|
E|------------------8--8--8---10-10-10-----------------------------------|


Verse: 4x
E|-----------------------------------------------------------------------|
B|-----------------------------------------------------------------------|
C|-----------------------------------------------------------------------|
D|--9-9-9--7--9-9--10-10-10--9--12-12------------------------------------| 
A|--7-7-7--5--7-7--10-10-10--9--12-12------------------------------------|
E|-----------------8--8--8---7--10-10------------------------------------|

Outro: 
E|-----------------------------------------------------------------------|
B|-----------------------------------------------------------------------|
C------------------------------------------------------------------------|
D|--2~--5~--5~--2~--5~--7~--2~--5~--5~--2~--5--7--9----------------------|
A|--2~--3~--5~--2~--3~--5~--2~--3~--5~--2~--3--5--7----------------------|
E|--0~------3~--0~----------0~------3~--0~-------------------------------|



| /  slide up
| \  slide down
| h  hammer-on
| p  pull-off
| ~  let ring
| +  harmonic
| x  Mute note
============================================================================


Share "My Little World" by 88 Fingers Louie


TOP 10 TABS

FRESH NEW TABS

ALL ARTISTS
artist wiki

mp3bear.com
song lyrics / contact us / privacy policy / tabspace toolbar
Copyright 2004 - 2014 TabSpace.com - All Rights Reserved.
song: my little world guitar tabs by 88 fingers louie

0.019