:: Guitar & Bass Tabs Make Home Page
A B C D E F G H I J K L M N O P Q R S T U V W X Y Z #

  for    

On TABSPACE
Info About This Tab
Artist: Fear
Tab Type: Guitar
Rate This Tab!
-------------------------------------------------------------------------------
New York's Alright If You Like Saxophones - Fear
The Record 
-------------------------------------------------------------------------------
Tabbed by: axeslash
Email: holmzito@yahoo.com

Tuning: 
Guitar 1: EADGBE 
Gutiar 2: EADGBE (guitar 2 is palm muted throughout the entire song)

Riff 1
Guitar 1:
e|-----------------------------------------------------------------|
B|-----------------------------------------------------------------|
G|-----------------------------------------------------------------|
D|-----------------8-------7-------9---------------8---------------|
A|-7---------------6-------5-------7---------------6---------------|
E|-5---------------------------------------------------------------|
Guitar 2:
e|-----------------------------------------------------------------|
B|-----------------------------------------------------------------|
G|-----------------------------------------------------------------|
D|-----------------------------------------------------------------|
A|-----------------6-6-6-6-5-5-5-5-7-7-7-7-7-7-7-7-6-6-6-6-6-6-6-6-|
E|-5-5-5-5-5-5-5-5-------------------------------------------------|

Riff 2
Guitar 1:
e|---------------------------------------------------------------------------------|
B|---------------------------------------------------------------------------------|
G|---------------------------------------------------------------------------------|
D|-------------7-------------------------------------------------------------------|
A|-------------------------5-------6---------------5---------------6---------------|
E|-5-------------------------------------------------------------------------------|
Guitar 2:
e|---------------------------------------------------------------------------------|
B|---------------------------------------------------------------------------------|
G|---------------------------------------------------------------------------------|
D|-------------7-7-7-7-7-7---------------------------------------------------------|
A|-------------------------5-5-5-5-6-6-6-6-6-6-6-6-5-5-5-5-5-5-5-5-6-6-6-6-6-6-6-6-|
E|-5-5-5-5-5-5---------------------------------------------------------------------|

Riff 3
Guitar 2:
e|---------------------------------------------------------------------------------|
B|---------------------------------------------------------------------------------|
G|---------------------------------------------------------------------------------|
D|-------------7-7-7-7-7-7---------------------------------------------------------|
A|-------------------------5-5-5-5-6-6-6-6-6-6-6-6-5-5-5-5-5-5-5-5-6-6-6-6-6-6-6-6-|
E|-5-5-5-5-5-5---------------------------------------------------------------------|

Riff 4
Guitar 1+2:
e|---------------------------------------------------|
B|---------------------------------------------------|
G|---------------------------------------------------|
D|-------------7-7-----------------------------------|
A|-------------------------5-5-------------6\--------|
E|--5-5----------------------------------------------|

So you play the song like this:

Riff 1 x4
Riff 2 x4
Riff 3 x4
Riff 1 x4
Riff 2 x4
Riff 3 x4
Riff 1 x4
Riff 2 x11
Riff 4

| [x]  palm mute
|  /   slide up
|  \   slide down
|  h   hammer-on
|  p   pull-off
|  ~   vibrato
|  +   harmonic
|  x   Mute note
===============================================================================


Share "New Yorks Alright If You Like Saxophones" by Fear


TOP 10 TABS

FRESH NEW TABS

ALL ARTISTS
artist wiki

mp3bear.com
song lyrics / contact us / privacy policy / tabspace toolbar
Copyright 2004 - 2014 TabSpace.com - All Rights Reserved.
song: new yorks alright if you like saxophones guitar tabs by fear

0.002