:: Guitar & Bass Tabs Make Home Page
A B C D E F G H I J K L M N O P Q R S T U V W X Y Z #

  for    

On TABSPACE
Info About This Tab
Artist: Margot And The Nuclear So And Sos
Tab Type: Guitar
Rate This Tab!
Standard

e----2---3---2--------------------|
b----3---3---3---0----------------|
g----4---4---4---0----------------|
d----4---5---4---0----------------|   X2
a----2---5---2---2----------------|
e--------3-------3----------------|

e----2------------2-------|
b----3---1--------3-------|
g----2---2--------2-------|
d---------2--2------------|
a-------------2-----------|
e-------------0-----------|

e----2---3---2--------------------|
b----3---3---3---0----------------|
g----4---4---4---0----------------|
d----4---5---4---0----------------|   X4
a----2---5---2---2----------------|
e--------3-------3----------------|

e----2------------2-----------------------------|
b----3---1--------3-----------------------------|
g----2---2--------2-----------------------------|    X4
d--------2----2---------------------------------|
a-------------2---------------------------------|
e-------------0---------------------------------|

e--------------------|
b----4---------------|
g----4----1----------|
d----4----2----------| some hammers and pulls in here im not going to tab them
a----2----2----------|
e---------0----------|

e--------0---------------0----------------|
b--------3---------------3----------------|
g---1----2----------1----2----1-----------|
d---2--------2------2---------2-----------|
a---2--------2------2---------2-----------|
e---0--------0------0---------0-----------|

e----2------------2---------------------------|
b----3---1--------3---------------------------|
g----2---2--------2---------------------------|    X3?  (end on a G chord)
d--------2----2-------------------------------|
a-------------2-------------------------------|
e-------------0-------------------------------|


Share "O What A Nightmare" by Margot And The Nuclear So And Sos


TOP 10 TABS

FRESH NEW TABS

ALL ARTISTS
artist wiki

mp3bear.com
song lyrics / contact us / privacy policy / tabspace toolbar
Copyright 2004 - 2014 TabSpace.com - All Rights Reserved.
song: o what a nightmare guitar tabs by margot and the nuclear so and sos

0.01