:: Guitar & Bass Tabs Make Home Page
A B C D E F G H I J K L M N O P Q R S T U V W X Y Z #

  for    

On TABSPACE
Info About This Tab
Artist: 30 Seconds To Mars
Tab Type: Guitar
Rate This Tab!
Artist: 30 Seconds to Mars
Song: Oblivion
Album: 30 Seconds to Mars
Tabbed by: StarChild
website: www.30secondstomarsmex.tk / www.lifeonmars.tk
 

Tuning (From low to high) CGCFAD

Intro - guitar 2 (w/ flanger and delay)
|------10----10----10----10----10----10----10----10-------------|
|------11----10----10----10----11----10----10----10-------------|
|------12----10----10----10----12----10----10----10-------------|
|------------10----8-----10----------10----8-----10-------------|
|---------------------------------------------------------------|
|---------------------------------------------------------------|

 

Intro fill - guitar 1 (w/chorus and delay)
|---------------------------------------------------------------|
|---------------------------------------------------------------|
|---------------------------------------------------------------|
|---------------------------------------------------------------|
|------------------------5-5------------------------------------|
|------------------------5-5------------------------------------|

 

Verse - guitar 1 (w/ chorus)
|---------------------------------------------------------------|
|----4-3----1h3-------------------------------------------------|
|--------5-------0----------------------------------------------|
|---------------------------------------------------------------|
|---------------------------------------------------------------|
|---------------------------------------------------------------|

 

Intro w/ variations - guitar 2 (w/ ?)
*Listen to album for strumming pattern
|------10----13----10----13----10----11----10----11-------------|
|------11----11----10----10----10----10----10----10-------------|
|------12----12----10----10----10----10----10----10-------------|
|------------------10----10----8-----8-----10----10-------------|
|---------------------------------------------------------------|
|---------------------------------------------------------------|

 

Chorus - guitar 1 w/ intro w/ variations - guitar 2 (w/ ?) in background
|---------------------------------------------------------------|
|---------------------------------------------------------------|
|---------------------------------------------------------------|
|-/13\--1~---3~---5~---8-10-8-7-8--1~---3~---5~---8--10--10-6-8-|
|-/13\--1~---3~---5~---8-10-8-7-8--1~---3~---5~---8--8---10-6-6-|
|-/13\--1~---3~---5~---8-10-8-7-8--1~---3~---5~---8------10-6---|
Play first two chords of intro - guitar 2 (w/ ? and delay)

 

Verse 2 - guitar 2 (w/chorus)
|---------------------------------------------------------------|
|--------11p10----10----------11--------------------------------|
|-----------------------12--------------------------------------|
|---------------------------------------------------------------|
|---------------------------------------------------------------|
|---------------------------------------------------------------|

 

Verse 2 guitar fill - guitar 1
PM .. . . . . . . .
|---------------------------------------------------------------|
|---------------------------------------------------------------|
|---------------------------------------------------------------|
|--xx-8-7-8-7-5-5-5----8--10--5--1--3--5--8---------------------||
|--xx-6-5-8-7-5-3-5----6--8---3--1--3--5--8---------------------|
|--xx-----8-7-5---5--------------1--3--5--8---------------------|
Play intro w/ variations - guitar 2 (w/?)

 

Chorus w/ variations - guitar 1 w/ intro w/ variations - guitar 2
(w/ ?) in the background
|---------------------------------------------------------------|
|---------------------------------------------------------------|
|-6-4-3---------------------------------------------------------|
|-6-4-3-1~---3~---5~---8--10-8-7-8--1~---3~---5~---8--10-8-7-8--|
|-4-4-1-1~---3~---5~---8--10-8-7-8--1~---3~---5~---8--10-8-7-8--|
|-------1~---3~---5~---8--10-8-7-8--1~---3~---5~---8--10-8-7-8--|

|---------------------------------------------------------------|
|---------------------------------------------------------------|
|---------------------------------------------------------------|
|-1----3----5----8--10--10-6-8----------------------------------|
|-1----3----5----8--8---10-6-6----------------------------------|
|-1----3----5----8------10-6------------------------------------|

 

Breakdown - guitar 1
|---------------------------------------------------------------|
|---------------------------------------------------------------|
|---------------------------------------------------------------|
|-5-5--8-8--5-5--3-3--5-5--8-8--5-5--5--------------------------|
|-5-5--6-6--3-3--3-3--5-5--6-6--3-3--5--------------------------|
|-5-5------------3-3--5-5------------5--------------------------|

 

Breakdown - guitar 2
|---------------------------------------------------------------|
|---------------------------------------------------------------|
|--------------------------5-3----------------------3-5-7-------|
|-------------------3-5-----------5\1-1----6\3-3----------------|
|-5\1-1----6\3-3------------------------------------------------|
|---------------------------------------------------------------|

 

Breakdown - guitar 3
|---------------------------------------------------------------|
|---------------------------------------------------------------|
|--------------------5-7-12-10----------------------5-7/12-12---|
|-----------8\5-5--------------------------8\5-5----------------|
|-10\6-6--------------------------10\6-6------------------------|
|---------------------------------------------------------------|

 

Chorus w/ more variations - guitar 1 Intro w/ variations - guitar 2
(w/?) in the background
|---------------------------------------------------------------|
|---------------------------------------------------------------|
|---------------------------------------------------------------|
|-1~---3~---5~---8--10-8-7-8--1~---3~---5~---8--13-13-13--------|
|-1~---3~---5~---8--10-8-7-8--1~---3~---5~---8--11-11-11--------|
|-1~---3~---5~---8--10-8-7-8--1~---3~---5~---8--11-11-11--------|

 

Continued
|---------------------------------------------------------------|
|---------------------------------------------------------------|
|---------------------------------------------------------------|
|-1~---3~---5~---8--10\--10\--1~---3~---5~---8--10--10-6-8-0----|
|-1~---3~---5~---8---8\--10\--1~---3~---5~---8--8---10-6-6-0----|
|-1~---3~---5~---8-------10\--1~---3~---5~---8------10-6---0----|


Share "Oblivion" by 30 Seconds To Mars


TOP 10 TABS

FRESH NEW TABS

ALL ARTISTS
artist wiki

mp3bear.com
song lyrics / contact us / privacy policy / tabspace toolbar
Copyright 2004 - 2014 TabSpace.com - All Rights Reserved.
song: oblivion guitar tabs by 30 seconds to mars

0.017