:: Guitar & Bass Tabs Make Home Page
A B C D E F G H I J K L M N O P Q R S T U V W X Y Z #

  for    

On TABSPACE
Info About This Tab
Artist: 30 Seconds To Mars
Tab Type: Bass
Difficulty: novice
Rate This Tab!
                                   Oblivion                                     


                                                              30 Seconds to Mars
Basso



     H.              H.              H.              H.            
G||---------------|---------------|---------------|---------------|
D||---------------|---------------|---------------|---------------|
A||---------------|---------------|---------------|---------------|
E||---------------|---------------|---------------|---------------|


  H.              H.              H.              H.            
---------------|---------------|---------------|---------------|
---------------|---------------|---------------|---------------|
---------------|---------------|---------------|---------------|
---------------|---------------|---------------|---------------|


    H.              H.              H        Q       H        Q       
|----------------|---------------|----------------|-----------------||
|*---------------|---------------|----------------|----------------*||
|*---------------|--4------------|--6-------------|-----------6----*||
|---1------------|---------------|-----------6----|--6--------------||


  H.              H.              H.              H.              H.            
---------------|---------------|---------------|---------------|---------------|
---------------|---------------|---------------|---------------|---------------|
---------------|---------------|---------------|---------------|---------------|
---------------|---------------|---------------|---------------|---------------|


  Chorus                                                            
  H.              H.              H.              Q    E  E  E  E   
---------------|---------------|---------------|-------------------|
---------------|---------------|---------------|-------------------|
--4------------|--6------------|---------------|-------------------|
---------------|---------------|--1------------|--4----6--4--3--4--|


  H.              H.              H.              Q    E  E  E  E   
---------------|---------------|---------------|-------------------|
---------------|---------------|---------------|-------------------|
--4------------|--6------------|--1------------|-------6-----2-----|
---------------|---------------|---------------|--4-------6-----4--|


  H.              H.                H.              H.            
---------------|---------------||----------------|---------------|
---------------|---------------||*---------------|---------------|
---------------|---------------||*---------------|--4------------|
---------------|---------------||---1------------|---------------|


  H.              H        Q         H.              H.            
---------------|-----------------||---------------|---------------|
---------------|----------------*||---------------|---------------|
--6------------|-----------6----*||---------------|---------------|
---------------|--6--------------||---------------|---------------|


  H.              H.              E  E  H           H.            
---------------|---------------|-----------------|---------------|
---------------|---------------|-----------------|---------------|
---------------|---------------|--2--0-----------|--4------------|
---------------|---------------|--------4--------|---------------|


  H.              H.              Q    E  E  E  E     H.            
---------------|---------------|-------------------|---------------|
---------------|---------------|-------------------|---------------|
--6------------|---------------|-------------------|--4------------|
---------------|--1------------|--4----6--4--3--4--|---------------|


  H.              H.              Q    E  E  E  E     H.            
---------------|---------------|-------------------|---------------|
---------------|---------------|-------------------|---------------|
--6------------|--1------------|-------6-----2-----|--4------------|
---------------|---------------|--4-------6-----4--|---------------|


  H.              H.              Q    E  E  E  E     H.            
---------------|---------------|-------------------|---------------|
---------------|---------------|-------------------|---------------|
--6------------|---------------|-------------------|---------------|
---------------|--1------------|--4----6--4--3--4--|---------------|


  H.              H.              H.              H.             
---------------|---------------|---------------|----------------|
---------------|---------------|---------------|----------------|
---------------|--4------------|--6------------|----------------|
--1------------|---------------|---------------|--6s------------|


  H.              H.              H.              H.              H.            
---------------|---------------|---------------|---------------|---------------|
---------------|---------------|---------------|---------------|---------------|
---------------|--4------------|--6------------|---------------|--4------------|
--1------------|---------------|---------------|--6------------|---------------|


  H.              H.              Q    H           H.            
---------------|---------------|----------------|---------------|
---------------|---------------|----------------|---------------|
--6------------|---------------|----------------|--4------------|
---------------|--1------------|--4----6--------|---------------|


  H.              H.              H.              H.              H.            
---------------|---------------|---------------|---------------|---------------|
---------------|---------------|---------------|---------------|---------------|
--6------------|--1------------|--4------------|--6------------|---------------|
---------------|---------------|---------------|---------------|--1------------|


  Q    E  E  E  E    
-------------------||
-------------------||
-------------------||
--4----6--4--3--4--||




Duration Legend
---------------
W - whole
H - half
Q - quarter
E - 8th
S - 16th
T - 32nd
X - 64th
. - note dotted
|-n-|  - n-tuplets


Tablature Legend
----------------
L - tied note
x - dead note
g - grace note
(n) - ghost note
> - accentuded note
NH - natural harmonic
AH - artificial harmonic
TH - tapped harmonic
SH - semi harmonic
PH - pitch harmonic
h - hammer on
p - pull off
b - bend
br - bendRelease
pb - preBend
pbr - preBendRelease
brb - bendReleaseBend
\n/ - tremolo bar dip
\n - tremolo bar dive
-/n - tremolo bar Release up
/n\ - tremolo bar inverted dip
/n - tremolo bar return
-\n - tremolo bar Release down
S - shift slide
s - legato slide
/ -  slide into from below or out of upwards
\ -  slide into from above or out of downwards
~ - vibrato
W - wide vibrato
tr - trill
TP - tremolo picking
T - tapping
S - slap
P - pop
< - fade in
^ - brush up
v - brush down


Share "Oblivion Solo" by 30 Seconds To Mars


TOP 10 TABS

FRESH NEW TABS

ALL ARTISTS
artist wiki

mp3bear.com
song lyrics / contact us / privacy policy / tabspace toolbar
Copyright 2004 - 2014 TabSpace.com - All Rights Reserved.
song: oblivion solo bass tabs by 30 seconds to mars

0.012