:: Guitar & Bass Tabs Make Home Page
A B C D E F G H I J K L M N O P Q R S T U V W X Y Z #

  for    

On TABSPACE
Info About This Tab
Artist: Paramita
Tab Type: Guitar
Difficulty: intermediate
Rate This Tab!
Song: Panaginip Lang
Artist: Paramita
Tabbed By: retselmanalo@yahoo.com

************** Add nyo ako sa friendster ***********
		(retselmanalo@yahoo.com)

Tuning: EADGBE/standard

Intro: 
Guitar1

      Asus2    F#/D	Em/D
e |---0---------0--------0----------------------------|
b |---0---------2--------2----------------------------|
g |---2---------2--------2----------------------------|
d |---2---------0--------0----------------------------|  
a |---0---------0--------2----------------------------| 
e |---x---------2--------0----------------------------|          

Guitar2

e |----------4\5-4------------------------------------|
b |-----------------5h7-5---3h5-5\7-5-3-5-------------|
g |---------------------------------------------------|    2x
d |---------------------------------------------------|  
a |---------------------------------------------------| 
e |---------------------------------------------------|          

Asus2
ngayon sa 'king pag-iisa
F#/D
nahihibang sa kaiisip
Em/D
kung iiwasan ka,
Asus2
hahayaan ko na bang
F#/D			Em/D
tuluyan nang ibaon sa limot ang ala-ala mo..
Asus2			   F#/D
at ang lahat ng iyong mga sinabi
        Em/D
sa akin,
Asus2      F#/D			   Em/D
maari bang limutin ang nangyari sa atin?




F#/D
nguni't bago ka lumisan...

Guitar 2
	C#5	D5    E5
e |----x-x-x----x----x-x-----------------|
b |----x-x-x----x----x-x-----------------|
g |----6-6-6----7----9-9-----------------|
d |----x-x-x----x----x-x-----------------|  
a |----4-4-4----5----7-7-----------------| 
e |----x-x-x----x----x-x-----------------|          

Em/D
palayain ako....

Guitar 2
      F#5	E5  D5  E5
e |---x-x--x----x---x---x---------------|
b |---x-x--x----x---x---x---------------|
g |--11-11-11---9---7---9---------------|
d |---x-x--x----x---x---x---------------|  
a |---9-9--9----7---5---7---------------| 
e |---x-x--x----x---x---x---------------|

Asus2-F#/D-Em/D 2x

Asus2
ako pa rin ay nagtatanong
F#/D               Em/D
kung meron pang kaunting pag-asang
Asus2
magkabalikan,
F#/D             Em/D
pero ayoko nang maulit pa

Asus2        F#/D       Em/D    
Ohhhh oh oh..sumisigaw, lahat ay sinabi sa 'yo


     Dsus2     Asus2		
e |--0---------0---------|
b |--2---------0---------|
g |--2---------2---------|
d |--0---------2---------|  
a |--x---------0---------| 
e |--x---------x---------|          

Dsus2                Asus2
(ano ang iyong madarama)
kung malaman mong ito'y panaginip lang
Dsus2                Asus2
(ano ang iyong maiisip)
kung bukas ay di ka na muling gigising pa



| /  slide up
| \  slide down
| h  hammer-on
| p  pull-off



Share "Panaginip" by Paramita


TOP 10 TABS

FRESH NEW TABS

ALL ARTISTS
artist wiki

mp3bear.com
song lyrics / contact us / privacy policy / tabspace toolbar
Copyright 2004 - 2014 TabSpace.com - All Rights Reserved.
song: panaginip guitar tabs by paramita

0.004