:: Guitar & Bass Tabs Make Home Page
A B C D E F G H I J K L M N O P Q R S T U V W X Y Z #

  for    

On TABSPACE
Info About This Tab
Artist: Gentle Giant
Tab Type: Bass
Rate This Tab!
                              Pantagruel's Nativity
                                  Gentle Giant
                                                      Transcribed by Justin Benz


    Synthesizers   Vocals and Guitar Enter 0:28                                 
G---|--------------|-----------------------|--------------------------|---------
D---|--------------|-----------------------|-------------------(5)h7--|---------
A---|--------------|-----------------------|/7-----5------------------|---------
E---|--------------|-----------------------|----------8--7--5---------|---------
                                                                                

                                                                                
G-----------------|--------------|-------------------|--------------------------
D-----------------|-----5--------|--(5)-----5--4--3--|--2--------2--------2-----
A---------3--4h5--|--------------|-------------------|--------------------------
E------3----------|--3-----------|-------------------|-----0-----------0--------
                                                                                

                                                                                
G------|-----4--------------------|------------------|-----4--------------------
D------|-----------4--3-----------|--(0)h2-----------|-----------4--3-----------
A------|-----------------4--3--2--|------------------|-----------------4--3-----
E------|--------------------------|------------------|--------------------------
                                                                                

                                                                                
G------|---------------------|-----------------|--(4)h6--6--6--(4)h6--6--6------
D------|--(0)h2--------------|-----------------|--------------------------------
A------|------------2-----3--|--4--------4-----|--------------------------------
E---0--|---------------------|--------4--------|--------------------------------
                                                                                

                                                                                
G---|--(4)h6--4--------------------------|-----------------------||-------------
D---|---------------6--5--4--------------|-----------------------||*----5-------
A---|------------------------7-----4-----|--4-----------4-----4--||*/7-----5----
E---|---------------------------------4--|-----------4-----4-----||-------------
                                                                                

                                                    1:09                        
G---------------|--------------------------||--||------------------|------------
D---------------|-------5-----------------*||--||*-----5--5--------|-----5------
A------3--------|/7--------5-----3--------*||--||*--------------5--|------------
E---------------|--------------------------||--||---3--------------|--3---------
                                                                                

                                                                                
G-------------||-----------------|-----------------------|-----------------|----
D---5--------*||-----5--5--------|-----5--5-----5--4--3--|--2-----2--------|----
A---------5--*||--------------5--|-----------------------|--------------2--|----
E-------------||--3--------------|--3--------------------|-----0-----------|----
                                                                                

                                                                                
G---------------1-----2--1-----|--1-----2-----1--------|-----------------|------
D------2--2-----------------4--|-----4-----------2-----|-----2--2--------|------
A------------------------------|--------------------4--|--------------2--|------
E---0--------------------------|-----------------------|--0--------------|------
                                                                                

                                                                                
G---------------1-----2--1-----|--1-----2-----1--------|-----6--6----------|----
D------2--2-----------------4--|-----4-----------2-----|--------------4h6--|----
A------------------------------|--------------------4--|--4----------------|----
E---0--------------------------|-----------------------|-------------------|----
                                                                                

                                                                                
G------6--6--------------------|--------4--------------|-----6--6----------|----
D---------------3-----4--3-----|--3-----------6--4--3--|--------------4h6--|----
A---4-----------------------6--|-----6-----------------|--4----------------|----
E------------------------------|-----------------------|-------------------|----
                                                                                

                                                                                
G------6--6----------|-----6--6--|----------------------|-----------------------
D---------------4h6--|-----------|----5-----------------|-------5-----7---------
A---4----------------|--4--------|/7-----5-----3--------|/7--------5-----3------
E--------------------|-----------|----------------------|-----------------------
                                                                                

                                                  Guitar         1:52           
G---------|----------------------|----------------|--------------|--------------
D---------|----5-----------------|-------5--------|--------------|--(9)h11------
A---------|/7-----5-----3--------|/7--------5-----|--------------|--------------
E---------|----------------------|----------------|--------------|--------------
                                                                                

                                                                       2x       
G--------------------||-----------------------|------------------------||-------
D------10------------||*--------------------2/|--11-----10------------*||-------
A-------------12--9--||*-----------2-----2----|----------------12--9--*||-------
E--------------------||---0-----------0-------|------------------------||-------
                                                                                

    2:12                                                                        
G---||---------4--------------|--3--------------------|-----------------|--5----
D---||*-----------------------|--------3--------------|-----------------|-------
A---||*--2-----------2--------|--------------1--------|--2--------------|-------
E---||------------------------|-----------------------|-----------------|-------
                                                                                

                          7x  3:27 Vibraphone Solo                              
G---------4--3--2---------||-----------------------------------|----------------
D------4-----------------*||-----------------------------------|----------------
A------------------5-----*||--2--------2--------2--------0-----|--2--------2----
E-------------------------||--------2--------2--------2--------|--------2-------
                                                                                

                                                                                
G------------------------|--------------------------------------|---------------
D------------------------|--------------------------------------|---------------
A---------2--------------|--2--------2--------2--------0-----1--|--2------------
E------2--------2--3-----|--------2--------2--------2-----------|--------2------
                                                                                

                                                                                
G---------------------------|-----------------------------------|---------------
D---------------------------|-----------------------------------|---------------
A---2--------2--------------|--2--------2--------2--------0-----|--2------------
E---------2--------2--3-----|--------2--------2--------2--------|--------2------
                                                                                

                                                                                
G---------------------------|-----------------------------------|---------------
D---------------------------|-----------------------------------|---------------
A---2--------2--------------|--2--------2--------2--------0-----|--2------------
E---------2--------2--3-----|--------2--------2--------2--------|--------2------
                                                                                

                                                                                
G---------------------------|--------------------------------------|------------
D---------------------------|--------------------------------------|------------
A---2--------2--------------|--2--------2--------2--------0-----1--|--2---------
E---------2--------2--3-----|--------2--------2--------2-----------|------------
                                                                                

                                                                                
G------------------------------------|------------------------------------------
D------------------------------------|------------------------------------------
A------2--------2--------------0--1--|--2--------2--------2--------0-----1------
E---2--------2--------2--3-----------|--------2--------2--------2---------------
                                                                                

                                              4:06 Guitar Solo                  
G---|-----------------------------------------|---------------------------------
D---|-----------------------------------------|---------------------------------
A---|--2--------2--------2--------------0-----|--5--------5--------5------------
E---|--------2--------2--------2--3-----------|--------5--------5--------5------
                                                                                

                                                                                
G------------|--------------------------------------|---------------------------
D------------|--------------------------------------|---------------------------
A---3-----4--|--5--------5--------5-----3--1-----3--|--5--------5--------5------
E------------|--------5--------5--------------------|--------5--------5---------
                                                                                

                                                                                
G------------------|--------------------------------------------|---------------
D------------------|-----------------------3--------------------|---------------
A---------3-----4--|--5--------5--------5-----3--2--1-----3--4--|--5------------
E------5-----------|--------5--------5--------------------------|--------5------
                                                                                

                                                                                
G---------------------4--5-----------|------------------------------------------
D---------------4--7-----------7--4--|-----------------------4------------------
A---5--------5-----------------------|--5--------5--------5-----3--2--1---------
E---------5--------------------------|--------5--------5------------------------
                                                                                

                                                                                
G---------|-----------------------------------------|---------------------------
D---------|-----------------------------------------|---------------------------
A---3--4--|--5--------5--------5--5--------3-----4--|--5--------5--------5------
E---------|--------5--------5-----------5-----------|--------5--------5---------
                                                                                

                                                                                
G------------------------|--------------------------------------|---------------
D---3--------------------|--------------------------------------|---------------
A------3--2--1-----3--4--|--5--------5--------5--------3-----4--|--5------------
E------------------------|--------5--------5--------5-----------|--------5------
                                                                                

                            4:38                                                
G---------------------------||---------4--------------|--3----------------------
D---------------------------||*-----------------------|--------3----------------
A---5--------5--------1-----||*--2-----------2--------|--------------1----------
E---------5-----------------||------------------------|-------------------------
                                                                                

                                                  3x                5:17        
G---|-----------------|--5--------4--3--2---------||----------------||----------
D---|-----------------|--------4-----------------*||----------------||*---------
A---|--2--------------|--------------------5-----*||--(5)-----------||*--2------
E---|-----------------|---------------------------||----------------||----------
                                                                                

                                                                                
G------------------|-----------------------|--------------------|--4--3--2------
D------------------|--5--4--3--2-----1--0--|--------------------|---------------
A------2--0--2--0--|-----------------------|--4-----4--2--4--2--|---------------
E------------------|-----------------------|--------------------|---------------
                                                                                

                                                                                
G---1-----------|--------------3--2-----|------------------------||-------------
D---------5--4--|--3-----3--1--------3--|--------------5--4-----*||-------------
A---------------|-----------------------|--5-----5--3--------5--*||--------6----
E---------------|-----------------------|------------------------||--4----------
                                                                                

                                                                                
G------------|--------------------|--------------------|-----------------|------
D------------|--------------------|--------------------|-----------------|------
A---------6--|--------6-----------|--------3--------3--|--------3--------|------
E---4--------|--4--------4--3--2--|--1--------1--------|--1--------1-----|------
                                                                                

                  5:58                                                          
G-----------------||------------------|------------------||---------------------
D-----------------||*-----5--5--------|-----5--5--------*||-----5--5------------
A-----------------||*--------------5--|--------------5--*||--------------5------
E---(1)-----------||---3--------------|--3---------------||--3------------------
                                                                                

                                                                                
G---|-----------------------|-----------------|--------------1-----2--1---------
D---|-----5--5-----5--4--3--|--2-----2--------|-----2--2-----------------4------
A---|-----------------------|--------------2--|---------------------------------
E---|--3--------------------|-----0-----------|--0------------------------------
                                                                                

                                                                                
G---|--1-----2-----1--------|-----------------|--------------1-----2--1---------
D---|-----4-----------2-----|-----2--2--------|-----2--2-----------------4------
A---|--------------------4--|--------------2--|---------------------------------
E---|-----------------------|--0--------------|--0------------------------------
                                                                                

                                                                                
G---|--1-----2-----1--------|-----6--6----------|-----6--6----------------------
D---|-----4-----------2-----|--------------4h6--|--------------3-----4--3-------
A---|--------------------4--|--4----------------|--4-----------------------6----
E---|-----------------------|-------------------|-------------------------------
                                                                                

                                                                                
G---|--------4--------------|-----6--6----------|-----6--6----------|-----6-----
D---|--3-----------6--4--3--|--------------4h6--|--------------4h6--|-----------
A---|-----6-----------------|--4----------------|--4----------------|--4--------
E---|-----------------------|-------------------|-------------------|-----------
                                                                                

                                                                                
G---6--|----------------------|-------------------------|-----------------------
D------|----5-----------------|-------5-----7-----------|----5------------------
A------|/7-----5-----3--------|/7--------5-----3--------|/7-----5-----3---------
E------|----------------------|-------------------------|-----------------------
                                                                                

                                                                                
G---|-------------------|-------------------||----------------------------------
D---|-------5-----------|-------------------||----------------------------------
A---|/7--------5--------|--(5)--------------||----------------------------------
E---|-------------------|-------------------||----------------------------------
                                                                                



================================================================================
==                Created with a demo version of BUCKET O' TAB                ==
==                  tablature creation software for Windows                   ==
==                       http://www.his.com/~gse/bucket                       ==
================================================================================





Share "Pantagruels Nativity" by Gentle Giant


TOP 10 TABS

FRESH NEW TABS

ALL ARTISTS
artist wiki

mp3bear.com
song lyrics / contact us / privacy policy / tabspace toolbar
Copyright 2004 - 2014 TabSpace.com - All Rights Reserved.
song: pantagruels nativity bass tabs by gentle giant

0.01