:: Guitar & Bass Tabs Make Home Page
A B C D E F G H I J K L M N O P Q R S T U V W X Y Z #

  for    

On TABSPACE
Info About This Tab
Artist: Misc Television
Tab Type: Guitar
Difficulty: intermediate
Rate This Tab!

WARNING: You are trying to view
content from Ultimate-Guitar.com
in an unauthorized application,
which is prohibited.

Please use an official Ultimate
Guitar Tabs application for iPhone,
iPad or Android to access legitimate
chords, guitar, bass, and drum tabs
from Ultimate-Guitar.com database.

Type "ultimate guitar tabs" in Apple
App Store's or Android Market's
search to find the application.
-------------------------------------------------------------------------------
			   Parks and Recreation Theme
-------------------------------------------------------------------------------
Tabbed by: Nick Lucas
Email: n_lucas@live.com

Tuning: Standard

My First Tab Ever
Sorry about the timing but if you love the show this much it should'nty be a problem.

Lead (flutes, strings ect.)

e|---------------------------------------------------------------------------|
B|---------------------------------------------------------------------------|
G|----------------9-7----10----10-9-7-9--------------------------------------|
D|--------------------10-------------------14-12-10-12----12-10-9-10---------|
A|-12-10-9--10---------------------------------------------------------------|
E|---------------------------------------------------------------------------|

e|---------------------------------------------------------------------------|
B|---------------------------------------------------------------------------|
G|-9-7----20----10-9-7-9-----------------------------------------------------|
D|-----10-------------------14--14-12-10---------------7-9-7----7-7-9-10-----|
A|---------------------------------------11-----11--11-------------------8---|
E|---------------------------------------------------------------------------|

e|---------------------------------------------------------------------------|
B|-----------------------------10-8------------12--12--10-10--8-8--6-6-------|
G|----------------------7-9-10------10--9--7---12--12--10-10--9-9--7-7-------|
D|---------7-----7-9-10------------------------12--12--10-10--9-9--7-7-------|
A|-8--8-10----10-------------------------------10--10---8--8--7-7--5-5-------|
E|---------------------------------------------------------------------------|

e|---------------------------------------------------------------------------|
B|---------------------------------------------------------------------------|
G|-9-7----10----10-9-7-------------------------------------------------------|
D|-----10----------------------------7-9-7----7--7-9-10----------------------|
A|---------------------11-----11--11--------------------8--------------------|
E|---------------------------------------------------------------------------|

e|---------------------------------------------------------------------------|
B|---------------------------------------------------------------------------|
G|---------------------------------------------------------------------------|
D|----------------------------9----------------7----7-7-9-10-----------------|
A|-8--8-10-12-10----10--10-12---7----7--7-9-11---------------8---------------|
E|---------------------------------------------------------------------------|

e|---------------------------------------------------------------------------|
B|---------------------------------------------------------------------------|
G|---------------------------------------------------------------------------|
D|-------------10----9------10-----------------------------------------------|
A|-8--8-10-12--10----10-----10-----------------------------------------------|
E|---------------------------------------------------------------------------|


Rhythm

e|--------------------------------|3x |--------------------------------------|
B|----5-------6------5-------3----|   |-----5-------6-------5----------------|
G|----5-------5------5-------0----|   |-----5-------5-------5-------4--------|
D|---------3----------------------|   |----------3------------------6--------|
A|-3---------------3--------------|   |-3----------------3-------------------|
E|------------------------3-------|   |--------------------------4-----------|

e|---------------------------------------------------------------------------|
B|----1-------------------------------8---8---6---6---5---5---3---3----------|
G|----2-------2----4----4--4--4--4----7---7---5---5---4---4---2---2----------|
D|------------3----5----5--5--5--5-------------------------------------------|
A|-0-------------------------------------------------------------------------|
E|---------1-------3----3--3--3--3-------------------------------------------|

e|---------------------------------------------------------------------------|
B|----5-------6-------------------------------0------------------------------|
G|----5-------5-------4---------------2-------0-------1-------------2--------|
D|---------3----------6---------------3---------------2-------------3--------|
A|-3-----------------------0-------------------------------0-----------------|
E|-----------------4----------3--1-------3---------0----------0--1-----------|

e|---------------------------------------------------------------------------|
B|---------------------------------------------------------------------------|
G|-5----4----5---------------------------------------------------------------|
D|---------------------------------------------------------------------------|
A|-3---------3---------------------------------------------------------------|
E|------3--------------------------------------------------------------------|


Share "Parks And Recreation Theme" by Misc Television


TOP 10 TABS

FRESH NEW TABS

ALL ARTISTS
artist wiki

mp3bear.com
song lyrics / contact us / privacy policy / tabspace toolbar
Copyright 2004 - 2014 TabSpace.com - All Rights Reserved.
song: parks and recreation theme guitar tabs by misc television

0.002