:: Guitar & Bass Tabs Make Home Page
A B C D E F G H I J K L M N O P Q R S T U V W X Y Z #

  for    

On TABSPACE
Info About This Tab
Artist: Daphne Loves Derby
Tab Type: Guitar
Rate This Tab!
Part of my Past
Daphne Loves Derby
Standard tuning
www.purevolume.com/daphnelovesderby


Verse:
E-X-X-X-X-X-X-X--X-X-X-X--X--X-X-X-X-X-X-X-X----------]
B-3-3-3-3-3-3-3xx3-3-3-3~-3xx3-3-3-3-3-3-3-3-------3~-]
G-2-2-2-2-2-2-2xx2-2-2-2~-2xx2-2-2-2-2-2-2-2-----2~---]
D-0-0-0-0-0-0-0xx0-0-0-0~-0xx0-0-0-0-0-0-0-0---0~-----]
A-0-0-0-0-0-0-0xx2-2-0-X--X--2-2-2-2-0-0-0-0----------]
E-X-X-X-X-X-X-X--X-X-X-3~-3xxX-X-X-X-X-X-X-X-3~-------]

E-X-X-X-X-X-X-X--X-X-X-X--X--X-X-X-X-X-X-X-X-X~-]
B-3-3-3-3-3-3-3xx3-3-3-3~-3xx3-3-3-3-3-3-3-3-3~-]
G-2-2-2-2-2-2-2xx2-2-2-2~-2xx2-2-2-2-2-2-2-2-2~-]
D-0-0-0-0-0-0-0xx0-0-0-0~-0xx0-0-0-0-0-0-0-0-0~-]
A-0-0-0-0-0-0-0xx2-2-0-X--X--2-2-2-2-0-0-0-0-X~-]
E-X-X-X-X-X-X-X--X-X-X-3~-3xxX-X-X-X-X-X-X-X-3~-]

Prechorus:
E-X-X-X--X-X-X--X-X-X--X-X-X--X-X-X--X-X-X--X~-----]
B-3-3-3xx3-3-3xx3-3-3xx3-3-3xx3-3-3xx3-3-3xx3~-----]
G-2-2-2xx2-2-2xx2-2-2xx2-2-2xx2-2-2xx2-2-2xx2~-(7)-]
D-0-0-0xx0-0-0xx0-0-0xx0-0-0xx0-0-0xx0-0-0xx0~-(5)-]
A-2-2-2xxX-X-X--X-X-X--0-0-0xx2-2-2xxX-X-X--X~-----]
E-X-X-X--2-2-2xx3-3-3xxX-X-X--X-X-X--2-2-2xx3~-----]

Chorus:
E-X-X-X-X-X-X-X--X-X-X-X-X-X-X--]
B-3-3-3-3-3-3-3xx3-3-3-3-3-3-3xx]
G-2-2-2-2-2-2-2xx2-2-2-2-2-2-2xx]
D-0-0-0-0-0-0-0xx0-0-0-0-0-0-0xx]x3
A-0-0-0-0-0-0-0xxX-X-X-X-X-X-Xxx]
E-X-X-X-X-X-X-Xxx3-3-3-3-3-3-3xx]

E-X--X--X--X--X--X--X--X--X-]
B-3--3--3--3xx3--3--3--3xx3-]
G-2--2--2--2xx2--2--2--2xx2-]
D-0--0--0--0xx0--0--0--0xx0-]
A-2--2--2--2xx0--0--0--0xxX-]
E-X--X--X--X--X--X--X--X--3-]

Verse
Prechorus
Chorus
Verse
Prechorus
Chorus

Verse:
Make this ride as fast as I can.
Tonight this road home feels a little longer.
I hope you know that you were my best friend.
Tonight I said goodbye, but I should have said more.

Prechorus:
Thanks for the best time of my life.
(Thanks for the best)

Chorus:
Come home.
Now that you're gone, i've finally realized, 
that you were the best.
Come home.
I won't forget the times that we had.
I'm wishing that you weren't a part of my past.

Verse:
Emptiness swallows this town.
From now on I will be alone for good.
Will you remember my name?
I'm hoping that I will hear from you soon.

Prechorus:
(Thank you for everything)

Chorus:
Come home.
Now that you're gone, i've finally realized,
that you were the best.
Come home.
I won't forget the times that we had.
So please don't be a part of my past.


Share "Part Of My Past" by Daphne Loves Derby


TOP 10 TABS

FRESH NEW TABS

ALL ARTISTS
artist wiki

mp3bear.com
song lyrics / contact us / privacy policy / tabspace toolbar
Copyright 2004 - 2014 TabSpace.com - All Rights Reserved.
song: part of my past guitar tabs by daphne loves derby

0.012