:: Guitar & Bass Tabs Make Home Page
A B C D E F G H I J K L M N O P Q R S T U V W X Y Z #

  for    

On TABSPACE
Info About This Tab
Artist: Margot And The Nuclear So And Sos
Tab Type: Guitar
Rate This Tab!
parts for quiet as a mouse--------------

drop the low E string half step down (not drop d though)

intro

e----------------------------------------------------------|
b------3-----3--3----3----3--3----3----3--3-----3----3-----|
g--0-0--0-0---0--------------------------------------------|
d-----------------1-1--1-1--1--0-0--0-0--0--1-1--1-1--0-0--|
a----------------------------------------------------------|
E----------------------------------------------------------|

play that for intro and verse


chorus

something like this

e--------------------------------|
b--------------------------------|
g--------------------------------|
d--1--3--0--1--------------------|
a--1--1--0--1--------------------|
E--0--x--x--0--------------------|


Share "Quiet As A Mouse" by Margot And The Nuclear So And Sos


TOP 10 TABS

FRESH NEW TABS

ALL ARTISTS
artist wiki

mp3bear.com
song lyrics / contact us / privacy policy / tabspace toolbar
Copyright 2004 - 2014 TabSpace.com - All Rights Reserved.
song: quiet as a mouse guitar tabs by margot and the nuclear so and sos

0.013