:: Guitar & Bass Tabs Make Home Page
A B C D E F G H I J K L M N O P Q R S T U V W X Y Z #

  for    

On TABSPACE
Info About This Tab
Artist: Tokio Hotel
Tab Type: Guitar
Rate This Tab!
-----------------------------------------------------------------------
			 Rescue Me - Tokio Hotel
-----------------------------------------------------------------------
Tabbed by: Karleen Heong
Email: the_aurora_australis@hotmail.com

Tuning: CFA#D#GC (thickest to thinnest)
        Same as standard tuning except down 2 steps

An absolutely beautiful song by a German band. Heard this on radio
very recently and thought I'd tab it out, complete with all guitars.
I believe this song also goes under the name 'Rette Mich'. Must 
tune guitars down 2 steps to play with recording, otherwise standard 
tuning also works. This is definitely worth learning, enjoy!

Intro:
c |-------------------------------------------------------------------|
G |------0-----0----------0-----0----------0-----0----------0-----0---|
D#|----4---4------------4---4------------4---4------------4---4-------|
A#|--2-------2---2----2-------2---2----2-------2---2----2-------2---2-|
F |-------------------------------------------------------------------|
C |0----------------0----------------0----------------0---------------|

Verse 1:
c |---------------------------------------------------------------------|
G |------0----------------------------------------------------------0---|
D#|----4-------0--------0--------0--------0--------0--------0-----4---4-| x2
A#|--2-------4---4----4---4----4---4----4---4----4---4----4-----2-------| 
F |--------2--------------------------2--------3--------5-----0---------|
C |0----------------3--------2------------------------------------------|

c |----------------------------------|
G |------0---------------------------|
D#|----4-------0--------0--------0---| x2
A#|--2-------4---4----4---4----4---4-|
F |--------2-------------------------|
C |0----------------3--------2-------|
   "I trusted..."

c |----------------------------------------------------0~--|
G |------0-----0----------0-----0----------0-----0-----0~--|
D#|----4---4------------4---4------------4---4---------4~--|
A#|--2-------2---2----2-------2---2----2-------2---2---2~--|
F |0----------------3----------------0-----------------0~--|
C |--------------------------------------------------------|
   "Turn around..."

Chorus:
c |-------------------------------------------------------------------|
G |------3----------------3----------------3----------------3---------|
D#|----0---0---0--------0---0---0--------0---0---0--------0---0---0---|
A#|--4-------4---4----4-------4---4----4-------4---4----4-------4---4-|
F |3----------------5---------------------------------2---------------|
C |----------------------------------0--------------------------------|

c |-------------------------------------------------------------------|
G |------3----------------3----------------0-----0----------0-----0---|
D#|----0---0---0--------0---0---0--------4---4------------4---4-------|
A#|--4-------4---4----4-------4---4----2-------2---2----2-------2---2-|
F |3----------------5----------------0----------------0---------------|
C |-------------------------------------------------------------------|

c |---------------------------------|
G |------3----------------3---------|
D#|----0---0---0--------0---0---0---|
A#|--4-------4---4----4-------4---4-|
F |3----------------5---------------|
C |---------------------------------|

Guitar 2 strums clean in background - play your own pattern
c |--0----2----0----2----0----2----0----0----0----2---|
G |--1----3----0----3----1----3----0----0----1----3---|
D#|--0----2----0----4----0----2----2----2----0----2---|
A#|--2----0----2----4----2----0----2----2----2----0---|
F |--3----0----2----2----3----0----0----0----3----0---|
C |------------0--------------------------------------|

Post-Chorus 1 - guitar 1
c |-----------------------------------|
G |------0----------------------------|
D#|----4--------0--------0--------0---| x2
A#|--2--------4---4----4---4----4---4-|
F |---------2-------------------------|
C |0-----------------3--------2-------|


*Verse 2: Repeat verse as above then

*Repeat chorus as above with both guitars

Post-chorus 2: 
Guitar 1
c |-------------------------------------------------------------------|
G |------0-----0----------0-----0----------3----------------3---------|
D#|----4---4------------4---4------------0---0---0--------0---0---0---|
A#|--2-------2---2----2-------2---2----4-------4---4----4-------4---4-|
F |0----------------0----------------3----------------3---------------|
C |-------------------------------------------------------------------|
                            "You and me..."
c |-------------------------------------------------------------------|
G |------3----------------3----------------0-----0----------0-----0---|
D#|----0---0---0--------0---0---0--------4---4------------4---4-------|
A#|--4-------4---4----4-------4---4----2-------2---2----2-------2---2-|
F |5----------------5-------------------------------------------------|
C |----------------------------------0----------------0---------------|

Guitar 2 - Distorted - hold chords 
c |---------------------------------------|
G |---------------------------------------|
D#|-2----------5---------7--------9-------|
A#|-2----------5---------7--------9-------|
F |-0----------3---------5--------7-------|
C |---------------------------------------|

Bridge:
Guitar 1
c |-------------------------------------------------------------------|
G |------3----------------3----------------0-----0----------0-----0---|
D#|----0---0---0--------0---0---0--------4---4------------4---4-------| x2
A#|--4-------4---4----4-------4---4----2-------2---2----2-------2---2-|
F |3----------------5-------------------------------------------------|
C |----------------------------------0----------------0---------------|
   "The walls..."

c |---------------------------------------------------------|
G |------0-----0----------0-----0----------0-----0-----0~---|
D#|----4---4------------4---4------------4---4---------4~---|
A#|--2-------2---2----2-------2---2----2-------2---2---2~---|
F |0----------------3----------------0-----------------0~---|
C |---------------------------------------------------------|

Guitar 2 - Distorted - hold chords
c |--------------------------------------------------|
G |--------------------------------------------------|
D#|-5----7----9-----5----7----9-----2-----5-----2----|
A#|-5----7----9-----5----7----9-----2-----5-----2----|
F |-3----5----7-----3----5----7-----0-----3-----0----|
C |--------------------------------------------------|

Guitar 3 - Lead - distorted
c |--------------------------------------------------|
G |------------------/-8~--7~--5~--3~----------------|
D#|--------------------------------------------------|
A#|--------------------------------------------------|
F |--------------------------------------------------|
C |--------------------------------------------------|
   "You're not here..."            "Are you here..."   

Post-bridge/quiet chorus:
Guitar 1
c |-------------------------------------------------------------------|
G |------3----------------3----------------0-----0----------0-----0---|
D#|----0---0---0--------0---0---0--------4---4------------4---4-------|
A#|--4-------4---4----4-------4---4----2-------2---2----2-------2---2-|
F |3----------------5-------------------------------------------------|
C |----------------------------------0----------------0---------------|
                                                                   
Guitar 2 - Distorted                                                  
c |-------------------------------------------------------------------|
G |-------------------------------------------------------------------|
D#|----------------------------------2-2-2-2-2-2-2-2--2-2-2-2-2-2-2-2-|
A#|----------------------------------2-2-2-2-2-2-2-2--2-2-2-2-2-2-2-2-|
F |----------------------------------0-0-0-0-0-0-0-0--0-0-0-0-0-0-0-0-|
C |-------------------------------------------------------------------|
PM: (palm muted)                     . . . . . . . . 
  
Guitar 3 - Distorted - enters when gtr 2 enters
c |-------------------------------------------------------|
G |----10-12-10-12-10-12-10-12-10-12-10-12-10-12-10-12----|
D#|-------------------------------------------------------|
A#|-------------------------------------------------------|
F |-------------------------------------------------------|
C |-------------------------------------------------------|

Chorus 3:

Guitar 1 
c |-------------------------------------------------------------------|
G |------3----------------3----------------3----------------3---------|
D#|----0---0---0--------0---0---0--------0---0---0--------0---0---0---|
A#|--4-------4---4----4-------4---4----4-------4---4----4-------4---4-|
F |3----------------5---------------------------------2---------------|
C |----------------------------------0--------------------------------|

c |-------------------------------------------------------------------|
G |------3----------------3----------------0-----0----------0-----0---|
D#|----0---0---0--------0---0---0--------4---4------------4---4-------|
A#|--4-------4---4----4-------4---4----2-------2---2----2-------2---2-|
F |3----------------5----------------0----------------0---------------|
C |-------------------------------------------------------------------|

c |-------------------------------------------------------------------|
G |------3----------------3----------------0-----0----------0-----0---|
D#|----0---0---0--------0---0---0--------4---4------------4---4-------|
A#|--4-------4---4----4-------4---4----2-------2---2----2-------2---2-|
F |3----------------5-------------------------------------------------|
C |----------------------------------0----------------0---------------|

GUitar 2 - Distorted 
c |-----------------------------------------------------|
G |-----------------------------------------------------|
D#|-5----7----9----4----5----7----2----2-2-2-2-2-2-2-2--|
A#|-5----7----9----4----5----7----2----2-2-2-2-2-2-2-2--|
F |-3----5----7----2----3----5----0----0-0-0-0-0-0-0-0--|
C |-----------------------------------------------------|
PM                                     . . . . . . . .
  
c |-----------------------------------|
G |-----------------------------------|
D#|-5----7----2----2-2-2-2-2-2-2-2-2--|
A#|-5----7----2----2-2-2-2-2-2-2-2-2--|
F |-3----5----0----0-0-0-0-0-0-0-0-0--|
C |-----------------------------------|
PM                 . . . . . . . . .

Guitar 3 
c |---------------------|
G |---------------------|
D#|-9~---11~--9~---7~---|
A#|---------------------|
F |-7~---9~---7~---5~---|
C |---------------------|

c |------------------------------------------------------------|
G |-----------10-12-10-12-10-12-10-12-10-12-10-12-10-12-10-12--|
D#|-9~---11~---------------------------------------------------|
A#|------------------------------------------------------------|
F |-7~---9~----------------------------------------------------|
C |------------------------------------------------------------|

c |------------------------------------------------------------|
G |-----------10-12-10-12-10-12-10-12-10-12-10-12-10-12-10-12--|
D#|-9~---11~---------------------------------------------------|
A#|------------------------------------------------------------|
F |-7~---9~----------------------------------------------------|
C |------------------------------------------------------------|

Outro:
Guitar 1
c |-------------------------------------------------------------------|
G |------3----------------3----------------3----------------3---------|
D#|----0---0---0--------0---0---0--------0---0---0--------0---0---0---|
A#|--4-------4---4----4-------4---4----4-------4---4----4-------4---4-|
F |3----------------3----------------5----------------5---------------|
C |-------------------------------------------------------------------|
   "You and me..."
c |-------------------------------------------------------------------|
G |------0-----0----------0-----0----------3----------------3---------|
D#|----4---4------------4---4------------0---0---0--------0---0---0---|
A#|--2-------2---2----2-------2---2----4-------4---4----4-------4---4-|
F |----------------------------------3----------------3---------------|
C |0----------------0-------------------------------------------------|

c |-------------------------------------------|
G |------3----------------3-----------0-------|
D#|----0---0---0--------0---0---0-----4-------|
A#|--4-------4---4----4-------4---4---2--hold-|
F |5----------------5-----------------0-------|
C |-----------------------------------0-------|

Guitar 2 - Distorted
c |-----------------------------------------------------|
G |-----------------------------------------------------|
D#|-5-----7-----9---------------------5-----7-----------|
A#|-5-----7-----9---2-2-2-2-2-2-2-2---5-----7-----2~----|
F |-3-----5-----7---2-2-2-2-2-2-2-2---3-----5-----2~----|
C |-----------------0-0-0-0-0-0-0-0---------------0~----|
PM                  . . . . . . . . 

Guitar 3 - Distorted - long time between chords than the tab looks
c |----------------------------------------------------------------|
G |------------------------10-12-10-12-10-12-10-12-----------12~~--|
D#|-9~---9-11~--12-11-12~--------------------------9~---9~---------|
A#|----------------------------------------------------------9~~---|
F |-7~---7-9~---10-9--10~--------------------------7~---7~---------|
C |----------------------------------------------------------------|

The end! I didn't put in the piano bits (there's not much) but all 
the guitar parts should be there. If you like, you can omit the third 
guitar. Please rate and comment - suggestions will be appreciated
Thanks for viewing!

| /  slide up
| ~  hold/vibrato
| .  Palm mute (PM)
========================================================================



Share "Rescue Me" by Tokio Hotel


TOP 10 TABS

FRESH NEW TABS

ALL ARTISTS
artist wiki

mp3bear.com
song lyrics / contact us / privacy policy / tabspace toolbar
Copyright 2004 - 2014 TabSpace.com - All Rights Reserved.
song: rescue me guitar tabs by tokio hotel

0.017