:: Guitar & Bass Tabs Make Home Page
A B C D E F G H I J K L M N O P Q R S T U V W X Y Z #

  for    

On TABSPACE
Info About This Tab
Artist: Idlewild
Tab Type: Guitar
Difficulty: novice
Rate This Tab!

iDLEWiLD
Satan Polaroid

Guitar tuned down a step (D, G, C, F, A, D)

Intro Riff
D-------------------|
A-------------------|
F------6-----6-7-6--|
C-------------------|
G----7-----7--------|
D--5-----5----------| Play x 4

Verse Riff
The sea is never calm... 
D-------------------------------------|
A-------------------------------------|
F------6-----6-7-6-----6-----6\4-4/6--|
C-------------------------------------|
G----7-----7---------7-----7----------|
D--5-----5---------5-----5------------| Play x 3

Then play Intro Riff x 6

Chorus Riff
I said it all seems kinda strange...
D----------------------------------|
A----------------------------------|
F------------------11-11-11--9--7--|
C--7-7-7-7-9-9-9-9-----------------|
G--7-7-7-7-9-9-9-9-9--9--9---7--5--|
D--5-5-5-5-7-7-7-7-----------------| Play x 4

Post-Chorus Riff
You said you feel so alone...
D--------------------|
A--------------------|
F--7-7-7-7-7-6-7-9~--|
C--------------------|
G--5-5-5-5-5-4-5-7~--|
D--------------------| Play x 4

Then play Verse Riff x 5
Then play Intro Riff x 6
Then play Chorus Riff x 4
Then play Post-Chorus Riff x 4



Then play Intro Riff x 4
Then play Chorus Riff x 4
Then play Post-Chorus Riff x 4

Outro Riff
D---------------------------------------|
A---------------------------------------|
F-------------------11-11-11--9--7-7-7--|
C--7-7-7-7-9-9-9-9----------------------|
G--7-7-7-7-9-9-9-9--9--9--9---7--5-5-5--|
D--5-5-0-5-7-7-0-7----------------------| Play x 4

Guitar ends on:
D--7~--|
A--7~--|
E--5~--|




Share "Satan Polaroid" by Idlewild


TOP 10 TABS

FRESH NEW TABS

ALL ARTISTS
artist wiki

mp3bear.com
song lyrics / contact us / privacy policy / tabspace toolbar
Copyright 2004 - 2014 TabSpace.com - All Rights Reserved.
song: satan polaroid guitar tabs by idlewild

0.012