:: Guitar & Bass Tabs Make Home Page
A B C D E F G H I J K L M N O P Q R S T U V W X Y Z #

  for    

On TABSPACE
Info About This Tab
Artist: Tokio Hotel
Tab Type: Guitar
Rate This Tab!
this is the intro to their song scream.
its pretty simple, it could be in drop C so i'll submit a correct tab of the entire song 
i have time.

tuning: drop D

legend:

~ = ring
p = pull off
x = dead note

E||-------------------|-------------------|
B||-------------------|-------------------|
G||-------------------|-------------------|
D||-3~----------------|---3~--------------|
A||-1~--3p1---1-1-----|-x-1~--3p1---1-1---|
D||-1~------3---------|-x-1~------3-------|

E||-------------------|--------------------------------------|
B||-------------------|--------------------------------------|
G||-------------------|--------------------------------------|
D||-3~----------------|-4-4-4-4-3-3-3-3-1-1-1-1--------------|
A||-1~--3p1---1-1-----|-4-4-4-4-1-1-1-1-1-1-1-1--------------|
D||-1~------3---------|-4-4-4-4-1-1-1-1-1-1-1-1--------------|


Share "Scream Intro" by Tokio Hotel


TOP 10 TABS

FRESH NEW TABS

ALL ARTISTS
artist wiki

mp3bear.com
song lyrics / contact us / privacy policy / tabspace toolbar
Copyright 2004 - 2014 TabSpace.com - All Rights Reserved.
song: scream intro guitar tabs by tokio hotel

0.012