:: Guitar & Bass Tabs Make Home Page
A B C D E F G H I J K L M N O P Q R S T U V W X Y Z #

  for    

On TABSPACE
Info About This Tab
Artist: Sabaton
Tab Type: Guitar
Difficulty: intermediate
Rate This Tab!
Sabaton – Shadow

www.sabaton.net

( Tab by Service-Error ( circle_division@hotmail.com ) )

Enjoy The Tab, soon there will be more!
Questions? Mail me!

Normal Tuning  (  e a d g b e )

Listen to the song to know what kind of distortion the have.


Shadow


G   	3 5 5 ( 4 ) ( 3 ) ( 3 )
F       1 3 3 ( 2 ) ( 1 ) ( 1 )
C       7 9 9 ( 8 ) ( 7 ) ( 7 )   or  x 3 5 ( 5 ) ( 5 ) ( 3 )
A#      6 8 8 ( 7 ) ( 6 ) ( 5 )   or  x 1 3 ( 3 ) ( 3 ) ( 1 )

Intro

Guitar 1

G – F – C – G – C – F

Guitar 2

E ---------------------------------------------------------------------------|
B ---------------------------------------------------------------------------|
G ---------------------------------------------------------------------------|
D 5-5-5-8-5-7-5-3-5-5-5-8-5-10-10-10-8-7-5-3-5-5-5-8-5-7-5-3-5-5-5-8-5-10----|
A ---------------------------------------------------------------------------|
E ---------------------------------------------------------------------------|

E ---------------------------------------------------------------------------|
B ---------------------------------------------------------------------------|
G ---------------------------------------------------------------------------|
D 8-7-5-8-7-5/3-5------------------------------------------------------------|
A ---------------------------------------------------------------------------|
E ---------------------------------------------------------------------------|

Verse


Guitar 1 + 2


G – F – C – G – C – F


Chorus:

Guitar 1 + 2

G – F – C – A#


Interlude

Guitar 1

G – F – C – G – C – F

Guitar 2


E ---------------------------------------------------------------------------|
B ---------------------------------------------------------------------------|
G ---------------------------------------------------------------------------|
D 5-5-5-8-5-7-5-3-5-5-5-8-5-10-10-10-8-7-5-3-5-5-5-8-5-7-5-3-5-5-5-8-5-10----|
A ---------------------------------------------------------------------------|
E ---------------------------------------------------------------------------|

E ---------------------------------------------------------------------------|
B ---------------------------------------------------------------------------|
G ---------------------------------------------------------------------------|
D 8-7-5-8-7-5/3-5------------------------------------------------------------|
A ---------------------------------------------------------------------------|
E ---------------------------------------------------------------------------|

Verse


Guitar 1 + 2


G – F – C – G – C – F




Chorus:


Guitar 1 + 2

G – F – C – A#


I know the solo isn’t right, but its something what sounds like this, a few things are 
difficult to hear, but maby you can play a bit with this so you get the right solo.

Solo:


E ---------------------------------------------------------------------------|
B ---------------------------------------------------------------------------|
G 12p15-12p15-12p15-12p15-12p15-12p15-12p15-12p15-12p15-12p14-12p15-12p15----|
D ---------------------------------------------------------------------------|
A ---------------------------------------------------------------------------|
E ---------------------------------------------------------------------------|


E ---------------------------------------------------------------------------|
B ---------------------------------------------------------------------------|
G ---------------------------------------------------------------------------|
D 12p15-12p15-12p14-12p15p17-12p15p17-12p15p17-12p15p17-12p15p19-12p15p19----|
A ---------------------------------------------------------------------------|
E ---------------------------------------------------------------------------|


E ---------------------------------------------------------------------------|
B ---------------------------------------------------------------------------|
G ---------------------------------------------------------------------------|
D 12p15p19-12p15p19-12/19----------------------------------------------------|
A ---------------------------------------------------------------------------|
E ---------------------------------------------------------------------------|

E --------------------------------8-6---------------6-8----------------------|
B ------------------------------------8----------6-8-------------------------|
G ------------------------------5------------5-7-----------------------------|
D ------------------3-------3-5----------5-7---------------------------------|
A ------3-5-3-–-3-5---5-3-5--------------------------------------------------|
E 3-5-6-------5--------------------------------------------------------------|

E ---------------------------------------------------------------------------|
B 13-13-11-13-13-11----------------------------------------------------------|
G -----------------12---8-5-8-5-8-5-8-5----------------------5-8-7-----------|
D -------------------------------------------------3--5-7-8---------3--------|
A ---------------------------------------0-5-0-3-0---------------------------|
E ---------------------------------------------------------------------------|



Outtro:


E ---------------------------------------------------------------------------|
B ---------------------------------------------------------------------------|
G ---------------------------------------------------------------------------|
D ---7-7-7-7-5-5-5-5-12-12-12-12-10-10-10-10-----7---5---3---5—--3--5--------|
A ---5-5-5-5-3-3-3-3-10-10-10-10--8--8--8—-8-----5---3---1---3---1--1--------|
E ---------------------------------------------------------------------------|


Share "Shadow" by Sabaton


TOP 10 TABS

FRESH NEW TABS

ALL ARTISTS
artist wiki

mp3bear.com
song lyrics / contact us / privacy policy / tabspace toolbar
Copyright © 2004 - 2014 TabSpace.com - All Rights Reserved.
song: shadow guitar tabs by sabaton

0.013