:: Guitar & Bass Tabs Make Home Page
A B C D E F G H I J K L M N O P Q R S T U V W X Y Z #

  for    

On TABSPACE
Info About This Tab
Artist: Electric Six
Tab Type: Bass
Difficulty: novice
Rate This Tab!
Im not 100% on the outro but its my first tab, and i had to put it up due to the 
lack of representation of their later material, so here goes

Song: Simulated Love
Band: Electric Six
Album: KILL


Main Riff

G|---------------|
D|---------------|
A|------------3-3|
E|--3-6---1-1----|

Pre-Chorus

G|-----------------------------5---------8|
D|---------5---------8--------------------| x3
A|----------------------3-3-3-3---6-6-6-6-|
E|--3-3-3-3---6-6-6-6---------------------|

Outro - Alternate Between notes in brackets, listen to the song to know which ones to play

G|----------(5)-------|
D|--------------------|
A|-------6-3(3)----3--|
E|--3--36-------1-1---|


Any questions/suggestions email campbellcathal@yahoo.co.uk



Share "Simulated Love" by Electric Six


TOP 10 TABS

FRESH NEW TABS

ALL ARTISTS
artist wiki

mp3bear.com
song lyrics / contact us / privacy policy / tabspace toolbar
Copyright 2004 - 2014 TabSpace.com - All Rights Reserved.
song: simulated love bass tabs by electric six

0.015