:: Guitar & Bass Tabs Make Home Page
A B C D E F G H I J K L M N O P Q R S T U V W X Y Z #

  for    

On TABSPACE
Info About This Tab
Artist: Misc Television
Tab Type: Guitar
Difficulty: intermediate
Rate This Tab!
Spectacular Spiderman Theme

I learned this by ear, I know its 99.9% Accurate The whole thing
should be played with a clean-ish tone. Ive includes the times
incase any of it looks confusing etc  
A great theme to a great show
Enjoy   

Aaron AKA Englundisgod/Jackson KV
Goosebumps.fan@hotmail.com



 E A D G B E
|------------------------------------------------------------------|
|------------------------------------------------------------------|
|------------------------------------------------------------------|
|-------10101010--6666-5-5-----------------------------------------|
|------------------------3-----------------------------------------|
|-----------------------HOLD---------------------------------------|


To get the bright shimmering sound use a tremolo effect
0:06  VERSE
|------------------------------------------------------------------|
|--------8-7---7-8-------------------------------------------------|
|----5-8-----------------------------------------------------------|
|------------------------------------------------------------------|
|---PICK-EVERY-NOTE------------------------------------------------|
|------------------------------------------------------------------|
|------------------------------------------------------------------|


0:26  2ND VERSE             0:33
|------------------------------------------------------------------|
|------------------------------------------------------------------|
|------------------------------------HOLD--HOLD--------------------|
|----HOLD----HOLD-----------HOLD------3-----4----------------------|
|-----3--------6-------------4--------1-----2----------------------|
|-----1--------4-------------1-------------------------------------|





0:39  CHORUS
|------------------------------------------------------------------|
|--------------P-M---ALL--NOTES------------------------------------|
|------------------------------------------------------------------|
|---5-5------------------------------5--5--------------------------|
|---3-3---6-6---3-3----(5-6)---------3--3---6-6---3-3----(4-5-6)---|
|---------4-4---1-1----(3-4)----------------4-4---1-1----(1-3-4)---|


0:46 CTND
|------------------------------------------------------------------|
|-------------PM--ALL--NOTES---------------------------------------|
|------------------------------------------------------------HOLD--|
--5-5-----------------------------------------------HOLD---3--3----|
|-3-3---6-6---3-3---(5-6)------1010-6-6--3-3------3--3-----1--1----|
|-------4-4---1-1---(3-4)------8-8--4-4--1-1------1--1-------------|
                                                 PM       PM
0:52 HOLD UNTIL SOLO
|------------------------------------------------------------------|
|------------------------------------------------------------------|
|-ring-------------------------------------------------------------|
|--5---------------------------------------------------------------|
|--3---------------------------------------------------------------|
|------------------------------------------------------------------|


0:53  Solo
|------------------------------------------------------------------|
|------------------16----------------------------------------------|
|--5~--5/17~~~~-17---17-(17)---------------------------------------|
|--------------------------17-15~-15~~15~~-(15)1818-17~------------|
|------------------------------------------------------------------|
|------------------------------------------------------------------|

   1:01
|------------------------------------------------------------------|
|-------------16---------------------------------------------------|
|--/17~~-1717---17-(17)--------------------------------------------|
|---------------------17-15~~15~~-15-15b-15b-13h15~~---------------|
|------------------------------------HALF-BENDS--------------------|
|------------------------------------------------------------------|

   1:07
|------------------------------------------------------------------|
|------------------------------------------------20----------------|
|---/17----17----20--17---17---------17----17--------17----17------|
|-------17----17-------17---------------17----17--------17---------|
|------------------------------------------------------------------|
|------------------------------------------------------------------|

   1:10
|------------------------------------------------------------------|
|------------------------------------------------------------------|
|--/17----17----20--17---17---------17----17----15b-15br-----------|
|------17----17-------17---------------17----17----------(17)------|
|------------------------------------------------------------------|
|------------------------------------------------------------------|

    1:14
|------------------------------------------------------------------|
|------------------------------------------------20----------------|
|----17----17----20--17---17---------17----17--------17----17------|
|-------17----17-------17---------------17----17--------17---------|
|------------------------------------------------------------------|
|------------------------------------------------------------------|

    1:17   SOLO END
|--------------------------------------18-19-20\-------------------|
|---------------------------------(20\)------SLIDE-----------------|
|----17----17----17----17-----20/--SLIDE-----DOWN------------------|
|-------17----17----17----17-SLIDE--UP-----------------------------|
|----------------------------DOWN----------------------------------|
|------------------------------------------------------------------|






   1:20  INSTRUMENTAL BREAK  x2
|---20-------------------------------------------------------------|
|------20-19--16---------------------------------------------------|
|----------------17------------------------------------------------|
|------------------------------------------------------------------|
|------------------------------------------------------------------|
|------------------------------------------------------------------|






    1:24 VERSE
|------------------------------------------------------------------|
|--------8-7---7-8-------------------------------------------------|
|----5-8-----------------------------------------------------------|
|------------------------------------------------------------------|
|---PICK-EVERY-NOTE------------------------------------------------|
|------------------------------------------------------------------|
|------------------------------------------------------------------|


    1:37  2ND VERSE         1:44
|------------------------------------------------------------------|
|------------------------------------------------------------------|
|------------------------------------HOLD--HOLD--------------------|
|----HOLD----HOLD---------------------3-----4----------------------|
|-----3--------6-------------4--------1-----2----------------------|
|-----1--------4-------------1-------------------------------------|






    1:50  CHORUS
|------------------------------------------------------------------|
|--------------P-M---ALL--NOTES------------------------------------|
|------------------------------------------------------------------|
|---5-5------------------------------5--5--------------------------|
|---3-3---6-6---3-3----(5-6)---------3--3---6-6---3-3----(5-6)-----|
|---------4-4---1-1----(3-4)----------------4-4---1-1----(3-4)-----|

    1:57  CTND
|------------------------------------------------------------------|
|-------------PM--ALL--NOTES---------------------------------------|
|------------------------------------------------------------HOLD--|
|-5-5-----------------------------------------------HOLD---3--3----|
|-3-3---6-6---3-3---(5-6)------1010-6-6--3-3------3--3-----1--1----|
|-------4-4---1-1---(3-4)------8-8--4-4--1-1------1--1-------------|
                                                 PM       PM







    2:03  OUTRO   x8
|-20\----20--------------------------------------------------------|
|-----------20-19--16----------------------------------------------|
|---------------------17-------------------------------------------|
|------------------------------------------------------------------|
|------------------------------------------------------------------|
|------------------------------------------------------------------|


     2:17  END  4x
|------------------------------------------------------------------|
|--------8-7---7-8-------------------------------------------------|
|----5-8-----------------------------------------------------------|
|------------------------------------------------------------------|
|---PICK-EVERY-NOTE------------------------------------------------|
|------------------------------------------------------------------|
|------------------------------------------------------------------|




Share "Spectacular Spiderman Theme" by Misc Television


TOP 10 TABS

FRESH NEW TABS

ALL ARTISTS
artist wiki

mp3bear.com
song lyrics / contact us / privacy policy / tabspace toolbar
Copyright 2004 - 2014 TabSpace.com - All Rights Reserved.
song: spectacular spiderman theme guitar tabs by misc television

0.017