:: Guitar & Bass Tabs Make Home Page
A B C D E F G H I J K L M N O P Q R S T U V W X Y Z #

  for    

On TABSPACE
Info About This Tab
Artist: Ian Brown
Tab Type: Guitar
Rate This Tab!
Artist: Ian Brown
Song: Sunshine
Album: Unfinished Monkey Business
Tuning: D standard tunning (2 frets down)
Tabbed By: INDIE NATION


 v = Upstroke   Note: The E7 in this song is played 0202100
 ^ = Downstroke

    E         Am
 d|-0-0-0-0-|-0------0---0-0----0---0-0-0-0-|reapat that
 a|-0-0-0-0-|-1------1---1-1----1---1-1-1-1-|same pattern
 f|-1-1-1-2-|-2---2--2---2-2-2--2---2-2-2-2-|for C,D,E and E7
 c|-2-2-2-2-|-2---2--2---2-2-2--2---2-2-2-2-|
 g|-2-2-2-2-|-0---0--0---0-0-0--0---0-0-0-0-|
 d|-0-0-0-0-|-------------------------------|
    v ^ v ^   ^   ^  ^   ^ v ^  ^   ^ v ^ v

    G       Em      D7      G7
 d|-3-3-3-3-0-0-0-0-2-2-2-2-1-|
 a|-0-0-0-0-0-0-0-0-1-1-1-1-0-|
 f|-0-0-0-0-0-0-0-0-2-2-2-2-0-|
 c|-0-0-0-0-2-2-2-2-0-0-0-0-0-|
 g|-x-x-x-x-2-2-2-2---------x-|
 d|-3-3-3-3-0-0-0-0---------3-|
    ^ v ^ v ^ v ^ v ^ v ^ v ^
    I...             I...

 Structure:
 Verse: E|Am, C, D, Am,
          Am, C, D, E, E7

 Bridge: G, Em, D7, G7

 Verse 2: E|Am, C, D, Am,
            Am, C, D, E, E7

 Chorus: Am, C, D, Am,
         Am, C, D, E, E7

 Bridge: G, Em, D7, G7

 Solo E|Am, C, D, Am,
        Am, C, D, E, E7

 Repeat Chorus
 Repeat Chorus again, starting on "Sunshine"

 Solo: (Played entirely on the high-e string)
 d|-8-----8-8-8-7-5---8-7-5-------5-5-5-7-8---8-7-5-5---------|
 a|-----------------------------------------------------------|
 f|-----------------------------------------------------------|
 c|-----------------------------------------------------------|
 g|-----------------------------------------------------------|
 d|-----------------------------------------------------------|
          *       *dont pick(*)                  (   3  )(   3   )
 d|-5-5-5\3-3---3/5-5----------5-/-12-----12-12--12-12-12-12-12-12-|
 a|-------*-------*------------(re-pick)---------------------------|
 f|---------------------------------*------------------------------|
 c|----------------------------------------------------------------|
 g|----------------------------------------------------------------|
 d|----------------------------------------------------------------|
    (  3  ) (  3 ) ( 3 )
 d|-12-10-8-10-8-7-8-7-5--5-7-8--8-7-5-5--5-5-5-------|
 a|---------------------------------------------------|
 f|---------------------------------------------------|
 c|---------------------------------------------------|
 g|---------------------------------------------------|
 d|---------------------------------------------------|

 Then, right at the end, there's a little electronic tune:
 d|----------------------|
 a|----------3-----------|
 f|:-4---4-------4--4-4-:|
 c|:--------------------:|
 g|----------------------|
 d|----0---0---0---------|


Share "Sunshine" by Ian Brown


TOP 10 TABS

FRESH NEW TABS

ALL ARTISTS
artist wiki

mp3bear.com
song lyrics / contact us / privacy policy / tabspace toolbar
Copyright 2004 - 2014 TabSpace.com - All Rights Reserved.
song: sunshine guitar tabs by ian brown

0.027