:: Guitar & Bass Tabs Make Home Page
A B C D E F G H I J K L M N O P Q R S T U V W X Y Z #

  for    

On TABSPACE
Info About This Tab
Artist: Panda
Tab Type: Guitar
Rate This Tab!
Tabbed by: mario quiñones
Email: bancablanca@yahoo.com.mx

Tuning: 1/2 step down (Eb, Ab, Db, Gb, Bb, eb)
<= consistent strumming
intro: arpeggios
eb|------------------0--------------------------------------------------------|
Bb|----3----3---3---3-3-------------------------------------------------------|
Gb|---0----0---0--------------------------------------------------------------|(x6)
Db|--0----0---0---0-----------------------------------------------------------|
Ab|------2---3----------------------------------------------------------------|
Eb|3--------------------------------------------------------------------------|
Verse: let ring
eb|-3----2------3----2----------------------------------------------------------|
Bb|-3----3------3----3----------------------------------------------------------|
Gb|-0----2------0----2----------------------------------------------------------| (x4)
Db|-0-----------2---------------------------------------------------------------|
Ab|-2-----------3---------------------------------------------------------------|
Eb|-3---------------------------------------------------------------------------|
    solo tuuu, criticas....
Continued: complete strokes
eb|-3<----2<------3<----2<----------------------------------------------------------|
Bb|-3<----3<------3<----3<----------------------------------------------------------|
Gb|-0<----2<------0<----2<----------------------------------------------------------| (x4)
Db|-0<------------2<----------------------------------------------------------------|
Ab|-2<------------3<----------------------------------------------------------------|
Eb|-3<------------------------------------------------------------------------------|
lo comprare, lo comprare...
Chorus:
eb|------------------0--------------------------------------------------------|
Bb|----3----3---3---3-3-------------------------------------------------------|
Gb|---0----0---0--------------------------------------------------------------|(x4)
Db|--0----0---0---0-----------------------------------------------------------|
Ab|------2---3----------------------------------------------------------------|
Eb|3--------------------------------------------------------------------------|
hey tu mirame a mi...
Continued: full strokes
eb|-3<----2<------3<----2<----------------------------------------------------------|
Bb|-3<----3<------3<----3<----------------------------------------------------------|
Gb|-0<----2<------0<----2<----------------------------------------------------------| (x4)
Db|-0<------------2<----------------------------------------------------------------|
Ab|-2<------------3<----------------------------------------------------------------|
Eb|-3<------------------------------------------------------------------------------|
ya no te vistas asi...
Break:
eb|-----------------2---------------------------------------------------------|
Bb|----5----5---5--5-5--------------------------------------------------------|
Gb|---2----2---2--------------------------------------------------------------| (x4)
Db|--2----2---0---2-----------------------------------------------------------|
Ab|-0----4--------------------------------------------------------------------|
Eb|---------------------------------------------------------------------------|
Verse: full strokes
eb|-0<---0<---2<---4<---------------------------------------------------------|
Bb|-2<---5<---3<---5<---------------------------------------------------------|
Gb|-2<---4<---2<---4<---------------------------------------------------------| (x4)
Db|-2<---2<-------------------------------------------------------------------|
Ab|-0<------------------------------------------------------------------------|
Eb|---------------------------------------------------------------------------|
me separe de ti...
Chorus:
eb|-0---4---2---4--------------------------------------------------------------|
Bb|-2---5---3---5--------------------------------------------------------------|
Gb|-2---4---2---4--------------------------------------------------------------| (x4)
Db|-2--------------------------------------------------------------------------|
Ab|-0--------------------------------------------------------------------------|
Eb|----------------------------------------------------------------------------|
hey tu mirame a mi...
Interlude:
eb|-xxx--xxx-x-----------------------------------------------------------------------|
Bb|-xxx--xxx-x-----------------------------------------------------------------------|
Gb|-xxx--xxx-x-----------------------------------------------------------------------|
Db|-xxx--xxx-x--4-6-7-6--------------------------------------------------------------|
Ab|-xxx--xxx-x--2-4-5-4--2-2-4-4-4-4-------------------------------------------------|
Eb|-xxx--xxx-x-----------0-0-2-2-2-2-------------------------------------------------|
Continued:
eb|---------------------------------------------------------------------------|
Bb|---------------------------------------------------------------------------|
Gb|---------------------------------------------------------------------------|
Db|-4-6-7-6--4-6-7-6---------------4-6-7-6--4-6-7-6---------------------------|
Ab|-2-4-5-4--2-4-5-4--2-2-4-4-4-4--2-4-5-4--2-4-5-4---------------------------|
Eb|-------------------0-0-2-2-2-2---------------------------------------------|

eb|---------------------------------------------------------------------------|
Bb|---------------------------------------------------------------------------|
Gb|---------------------------------------------------------------------------|
Db|2-2-2-2-------------7-7-7-7--9-9-9-9---------------------------------------| (x4)
Ab|0-0-0-0--2-2-2-2-2--5-5-5-5--7-7-7-7---------------------------------------|
Eb|---------0-0-0-0-0-----------0-0-0-0---------------------------------------|
me separe de ti, no te gustaba mi sueter geek
Continued: let ring
eb|-5---4---2---4--------------------------------------------------------------|
Bb|-5---5---3---5--------------------------------------------------------------|
Gb|-2---4---2---4--------------------------------------------------------------|
Db|-2--------------------------------------------------------------------------|
Ab|-0--------------------------------------------------------------------------|
Eb|----------------------------------------------------------------------------|
ahora vuelves aqui....
Outro:
eb|-5<---4<---2<---4<-----------------------------------------------------------|
Bb|-5<---5<---3<---5<-----------------------------------------------------------|
Gb|-2<---4<---2<---4<-----------------------------------------------------------|
Db|-2<--------------------------------------------------------------------------|
Ab|-0<--------------------------------------------------------------------------|
Eb|-----------------------------------------------------------------------------|
savia que volverias a mi...

PLEASE RATE! comments or questions here or at my email


Share "Sweater Geek" by Panda


TOP 10 TABS

FRESH NEW TABS

ALL ARTISTS
artist wiki

mp3bear.com
song lyrics / contact us / privacy policy / tabspace toolbar
Copyright © 2004 - 2014 TabSpace.com - All Rights Reserved.
song: sweater geek guitar tabs by panda

0.015