:: Guitar & Bass Tabs Make Home Page
A B C D E F G H I J K L M N O P Q R S T U V W X Y Z #

  for    

On TABSPACE
Info About This Tab
Artist: Electric Six
Tab Type: Guitar
Difficulty: intermediate
Rate This Tab!
I find the lyrics to this song to be very inspirational.

Intro:
e----------------------            e--/8888-----|
B---------13-----------            B--/8888-----|
G----11h12---11h12---8-    x3 then G------------|
D----------------------            D------------|
A----------------------            A------------|
E----------------------            E------------|

Verse
e--------------------/8888-|
B--------5b6r5-3-----/8888-|
G------5-5b6r5-3-----------|
D--7x--5---------5---------|  x8
A--7x--3---------5---------|
E--5x------------3---------|

Pre-Chorus
e--7-7x-7x7x7x7x7---7-5-5-7-5-5-7-5-5-7-5--7-7x-7x7x7x7x7-|
B--7-7x-7x7x7x7x7---7-5-5-7-5-5-7-5-5-7-5--7-7x-7x7x7x7x7-|
G--7-7x-7x7x7x7x7--------------------------7-7x-7x7x7x7x7-|
D---------------------------------------------------------|
A---------------------------------------------------------|
E---------------------------------------------------------|

Chorus (same as verse...almost)
e--------------/8888----|
B--------------/8888----|
G------5-555------------|
D--7x--5-555-55---------|  x4
A--7x--3-333-55---------|
E--5x--------33---------|

Verse x1
Pre-Chorus x1
Chorus x1

End With:
G-------|
D--7777-|
A--7777-|
E--5555-|
(Take Off Your Clothes!)


Share "Take Off Your Clothes" by Electric Six


TOP 10 TABS

FRESH NEW TABS

ALL ARTISTS
artist wiki

mp3bear.com
song lyrics / contact us / privacy policy / tabspace toolbar
Copyright 2004 - 2014 TabSpace.com - All Rights Reserved.
song: take off your clothes guitar tabs by electric six

0.017