:: Guitar & Bass Tabs Make Home Page
A B C D E F G H I J K L M N O P Q R S T U V W X Y Z #

  for    

On TABSPACE
Info About This Tab
Artist: Evanescence
Tab Type: Bass
Tuning: Drop C
Rate This Tab!

Intro:
F||-------------------------------|
C||-------------------------------| 3x
G||-------------------------------|
C||--5-5-5-5-5--5-5--5-5-3-1------|


                                 You know you're not the only one
--------------------------------|-----------------------------|--------------------------------|
--------------------------------|-----------------------------|--------------------------------|
--------------------------------|-----------------------------|--------------------------------|
--5-5-5-5-5--5-5--5-5-3-3-3-3-1-|--1-1-1-1-1--1-1--1-1-1------|--1-1-1-1-1--1-1--1-1-3-3-3-3-5-|

   ....
F||-------------------------------|
C||-------------------------------| 5x
G||-------------------------------|
C||--5-5-5-5-5--5-5--5-5-3-1------|

----------------------------------|
----------------------------------|
----------------------------------|
--5-5-5-5-5--5-5--5-5-3-3-3-3-1---|

  ...You know you're not the only one...
-----------------------------|--------------------------------|
-----------------------------|--------------------------------|
-----------------------------|--------------------------------|
--1-1-1-1-1--1-1--1-1-1------|--1-1-1-1-1--1-1--1-1-3-3-3-3-5-|

....
F||-------------------------------|
C||-------------------------------| 5x
G||-------------------------------|
C||--5-5-5-5-5--5-5--5-5-3-1------|

----------------------------------|
----------------------------------|
----------------------------------|
--5-5-5-5-5--5-5--5-5-3-3-3-3-1---|

  ...You know you're not the only one...
-----------------------------|--------------------------------|-------------------------------|
-----------------------------|--------------------------------|-------------------------------|
-----------------------------|--------------------------------|-------------------------------|
--1-1-1-1-1--1-1--1-1-1------|--1-1-1-1-1--1-1--1-1-3-3-3-3-5-|--5-5-5-5-5--5-5--5-5-3-1------|


  piano 4 measures             Chorus------------------------------------------------------------|
-------|-------|-------|-------|-------------------------------|---------------------------------|
-------|-------|-------|-------|-------------------------------|---------------------------------|
-------|-------|-------|-------|-------------------------------|---------------------------------|
-------|-------|-------|-------|--5-5-5--5-5-5-5--5-5-5-5-5-5--|--5-5-5--5-5-5-5--3-3-3-3-3-3-1--|

                                                                  All your lies.. i'm not believing
-------------------------------|--------------------------------|-------------------------------|
-------------------------------|--------------------------------|-------------------------------|
-------------------------------|--------------------------------|-------------------------------|
--1-1-1--1-1-1-1--1-1-1-1-1-1--|--1-1-1--1-1-1-1--1-1-3-3-3-3-5-|--5-5-5--5-5-5-5--5-5-5-5-5-5--|


--------------------------------|-------------------------------|--------------------------------|
--------------------------------|-------------------------------|--------------------------------|
--------------------------------|-------------------------------|--------------------------------|
--5-5-5--5-5-5-5--3-3-3-3-3-3-1-|--1-1-1--1-1-1-1--1-1-1-1-1-1--|--1-1-1--1-1-1-1--1-1-3-3-3-3-5-|

--------------< end of chorus



 2 measures                      So afraid to open your eyes...
-------------------|-------|-------------------------------|-------------------------------|
-------------------|-------|-------------------------------|-------------------------------|
-------------------|-------|-------------------------------|-------------------------------|
--5----------------|-------|--5-5-5-5-5--5-5--5-5-3-1------|--5-5-5-5-5--5-5--5-5-3-1------|

                                                      You know you're onot the only one...
-------------------------------|--------------------------------|-----------------------------|
-------------------------------|--------------------------------|-----------------------------|
-------------------------------|--------------------------------|-----------------------------|
--5-5-5-5-5--5-5--5-5-3-1------|--5-5-5-5-5--5-5--5-5-3-3-3-3-1-|--1-1-1-1-1--1-1--1-1-1------|


--------------------------------|
--------------------------------|
--------------------------------|
--1-1-1-1-1--1-1--1-1-3-3-3-3-5-|


 ....
F||-------------------------------|
C||-------------------------------| 5x
G||-------------------------------|
C||--5-5-5-5-5--5-5--5-5-3-1------|

----------------------------------|
----------------------------------|
----------------------------------|
--5-5-5-5-5--5-5--5-5-3-3-3-3-1---|


  ...You know you're not the only one...
-----------------------------|--------------------------------|-------------------------------|
-----------------------------|--------------------------------|-------------------------------|
-----------------------------|--------------------------------|-------------------------------|
--1-1-1-1-1--1-1--1-1-1------|--1-1-1-1-1--1-1--1-1-3-3-3-3-5-|--5-5-5-5-5--5-5--5-5-3-1------|

                                                                piano and bass
-------------------------------|-------------------------------|------------------------|
-------------------------------|-------------------------------|------------------------|
-------------------------------|-------------------------------|------------------------|
--5-5-5-5-5--5-5--5-5-3-1------|--5-5-5-5-5--5-5--5-5-3-1------|--5---5-5---1-3----3----|


---------------------|------------------------|----------------------|
-----------1----3----|------------------------|-----------0-1------L-|
---------------------|--------------0----0----|----------------------|
--1------------------|--5---5-5---1-----------|--1-------------------|

Chorus

-------------------------------|--------------------------------|-------------------------------|
-------------------------------|--------------------------------|-------------------------------|
-------------------------------|--------------------------------|-------------------------------|
--5-5-5--5-5-5-5--5-5-5-5-5-5--|--5-5-5--5-5-5-5--3-3-3-3-3-3-1-|--1-1-1--1-1-1-1--1-1-1-1-1-1--|


--------------------------------|-------------------------------|--------------------------------|
--------------------------------|-------------------------------|--------------------------------|
--------------------------------|-------------------------------|--------------------------------|
--1-1-1--1-1-1-1--1-1-3-3-3-3-5-|--5-5-5--5-5-5-5--5-5-5-5-5-5--|--5-5-5--5-5-5-5--3-3-3-3-3-3-1-|

                                                                 piano 7 measures

-------------------------------|--------------------------------|----|----|----|----|----|----|--|
-------------------------------|--------------------------------|----|----|----|----|----|----|--|
-------------------------------|--------------------------------|----|----|----|----|----|----|--|
--1-1-1--1-1-1-1--1-1-1-1-1-1--|--1-1-1--1-1-1-1--1-1-3-3-3-3-5-|----|----|----|----|----|----|--|



----|-------------------------------|--------------------------------|
----|-------------------------------|--------------------------------|
----|-------------------------------|--------------------------------|
----|--5-5-5--5-5-5-5--5-5-5-5-5-5--|--5-5-5--5-5-5-5--3-3-3-3-3-3-1-|


-------------------------------|--------------------------------|-------------------------------|
-------------------------------|--------------------------------|-------------------------------|
-------------------------------|--------------------------------|-------------------------------|
--1-1-1--1-1-1-1--1-1-1-1-1-1--|--1-1-1--1-1-1-1--1-1-3-3-3-3-5-|--5-5-5--5-5-5-5--5-5-5-5-5-5--|


--------------------------------|-------------------------------|--------------------------------|
--------------------------------|-------------------------------|--------------------------------|
--------------------------------|-------------------------------|--------------------------------|
--5-5-5--5-5-5-5--3-3-3-3-3-3-1-|--1-1-1--1-1-1-1--1-1-1-1-1-1--|--1-1-1--1-1-1-1--1-1-3-3-3-3-5-|



----------------------------------|----------------------------------||
----------------------------------|----------------------------------||
----------------------------------|----------------------------------||
--5-5-5-5-5-5-5-5-5-5-5-5-5-5-5-5-|--5-5-5-5-5-5-5-5-5-5-5-5-5-5-5-5-||


Share "The Only One" by Evanescence


TOP 10 TABS

FRESH NEW TABS

ALL ARTISTS
artist wiki

mp3bear.com
song lyrics / contact us / privacy policy / tabspace toolbar
Copyright 2004 - 2014 TabSpace.com - All Rights Reserved.
song: the only one bass tabs by evanescence

0.011