:: Guitar & Bass Tabs Make Home Page
A B C D E F G H I J K L M N O P Q R S T U V W X Y Z #

  for    

On TABSPACE
Info About This Tab
Artist: Margot And The Nuclear So And Sos
Tab Type: Guitar
Rate This Tab!
Half step down or standard

INTRO/VERSE
e----------------------------------------------------0-------------|
b------1--1--------1--1----------1--1---0---2--1-------1-----------|
g-------------0----0-------0-----2----------2-----1-------1--0-----|
d------2-----------0-------------3----------3----------------------|
a---3--3----3---1--1----1-----3--3----3-----3----------------------|
E------------------------------------------------------------------|

last time playing this play the F chord twice instead of F then Fm then play

e---1------1-------|
b---3---3--1-------|
g---2------1-------| let ring
d----------2-------|
a-------2--2-------|
E-------3--1-------|

repeat these parts then at "I know you're tired...." play

e---1-------------------------------------------------------------------|
b---3--3----1---1---1---------------------------------------1-----------|
g---2-----------0---2---------------------------------------2-----------|
d-----------2---0---3--then repeat this but instead of F at the-----2---|
a------2----3---1---3--end play Am--------------------------------------|
E------3----------------------------------------------------------------|


END ON

e---1------------------------|
b---3--3---------------------|
g---2------------------------|
d----------------------------|
a------2---------------------|
E------3---------------------|


Share "Things You Shouldnt Do" by Margot And The Nuclear So And Sos


TOP 10 TABS

FRESH NEW TABS

ALL ARTISTS
artist wiki

mp3bear.com
song lyrics / contact us / privacy policy / tabspace toolbar
Copyright 2004 - 2014 TabSpace.com - All Rights Reserved.
song: things you shouldnt do guitar tabs by margot and the nuclear so and sos

0.018