:: Guitar & Bass Tabs Make Home Page
A B C D E F G H I J K L M N O P Q R S T U V W X Y Z #

  for    

On TABSPACE
Info About This Tab
Artist: Panda
Tab Type: Guitar
Rate This Tab!
Tocame esta_Panda


ESTA FACIL LA ROLA SE VA EN:

  DO	MI	FA	SOL
E--------	E--------	E-1-------	E--3------|
B---1----	B--------	B-1-------	B--3------|
G---0----	G---1----	G-2-------	G--0------|
D---2----	D---2----	D-3-------	D--0------|
A---3----	A---2----	A-3-------	A--2------|
E--------	E--------	E-1-------	E--3------|


EN TODOS LOS VERSOS (no les pongo los versos porque asi en este orden va = la intro 
lleva todo igual solo que con un poquito de distorsión.)

DEPUES LLEVA ESTE SOLO o PUNTEO

E------------------------------------7----------------799b1097-9b1097-----11-14-14b16-14-11-----------------------|
B-7b977---------------------------79--97------------79---------------12-14-----------------14-11-1212b14-12-11-11-|
G-------864~4-1-4-4-4144/66b764~468-------86b7r64~/11-------------------------------------------------------------|
D-----------------------------------------------------------------------------------------------------------------|
A-----------------------------------------------------------------------------------------------------------------|
E-----------------------------------------------------------------------------------------------------------------|


E------------------------------------------------------------------------------------------------------------|
B-11-9-11-1212b14-12b14-12-11-15b1612-11-11-11-12b1412b14-12-11-15b1611-9-11-97-7---------9129---------------|
G--------------------------------------------------------------------------------414-11-11----11-8-11-8-684--|
D------------------------------------------------------------------------------------------------------------|
A------------------------------------------------------------------------------------------------------------|
E------------------------------------------------------------------------------------------------------------|

Buen alli esta esA rola el punteo me llevo 15 minutos hay que agarrarle el tiempo y 
bastante por QUE ya bien aprendido suena bien chingon si no escuchen la rola. Califíquenlo 
que yo se que no se habian atrevido a sacarlo.


Share "Tocame Esta" by Panda


TOP 10 TABS

FRESH NEW TABS

ALL ARTISTS
artist wiki

mp3bear.com
song lyrics / contact us / privacy policy / tabspace toolbar
Copyright © 2004 - 2014 TabSpace.com - All Rights Reserved.
song: tocame esta guitar tabs by panda

0.025