:: Guitar & Bass Tabs Make Home Page
A B C D E F G H I J K L M N O P Q R S T U V W X Y Z #

  for    

On TABSPACE
Info About This Tab
Artist: Obadiah Parker
Tab Type: Guitar
Rate This Tab!
-------------------------------------------------------------------------
TROUBLE Ė Obadiah Parker
-------------------------------------------------------------------------
Tabbed by: Kengus

This is from OP's acoustic cover EP "The Tip Jar Vol. 1". Another great
cover, this time of Coldplay's "Trouble". Just pick, pick, pick away.

Standard tuning

INTRO
   G           Em7         Bm7
e|--------------------------------------------------|
B|-----3-----------3-----------3-----------3-----3--|
G|-------0---0-------0---0-------2---2---------2----|  x2
D|---0-----0-----2-----2-----0-----0-----0------0---|
A|-------------------------2-----------2-----2------|
E|-3-----------0------------------------------------|

VERSE1
  G           Em7         Bm7                     F           Am
e|-----------------------------------------------------------------------|
B|----3-----------3-----------3-----------3-----0-----1-----------1------|
G|------0---0-------0---0-------2---2---------2---------2---2-------2---2|
D|--0-----0-----2-----2-----0-----0-----0------0----3-----3-----2-----2--|
A|------------------------2-----------2-----2-----------------0----------|
E|3-----------0-----------------------------------1----------------------|
  G           Em7         Bm7                     F           Am
e|-----------------------------------------------------------------------|
B|----3-----------3-----------3-----------3-----0-----1-----------1------|
G|------0---0-------0---0-------2---2---------2---------2---2-------2---2|
D|--0-----0-----2-----2-----0-----0-----0------0----3-----3-----2-----2--|
A|------------------------2-----------2-----2-----------------0----------|
E|3-----------0-----------------------------------1----------------------|
  G
e|--------------------|
B|----3--------3------|
G|------0----------0--|
D|--0-----0------0----|
A|--------------------|
E|3-------------------|

VERSE 2 (& 3)
  G           Em7         Bm7                     F           Am
e|-----------------------------------------------------------------------|
B|----3-----------3-----------3-----------3-----0-----1-----------1------|
G|------0---0-------0---0-------2---2---------2---------2---2-------2---2|
D|--0-----0-----2-----2-----0-----0-----0------0----3-----3-----2-----2--|
A|------------------------2-----------2-----2-----------------0----------|
E|3-----------0-----------------------------------1----------------------|
  G           Em7         Bm7                     F           Am
e|-----------------------------------------------------------------------|
B|----3-----------3-----------3-----------3-----0-----1-----------1------|
G|------0---0-------0---0-------2---2---------2---------2---2-------2---2|
D|--0-----0-----2-----2-----0-----0-----0------0----3-----3-----2-----2--|
A|------------------------2-----------2-----2-----------------0----------|
E|3-----------0-----------------------------------1----------------------|
  G
e|-----------------------------|
B|----3-------------3-------0--|
G|------0---0-----0-------0----|
D|--0-----0-----0-------0------|
A|-----------------------------|
E|3-----------3-------3--------|

CHORUS
   A                         Em7
e|-------------------------------------------------------|
B|-----2------------2------------3------------3-------3--|
G|-------2---2--------2---2--------0---0----------0------| x3
D|---2-----2------2-----2------2-----2------2---2---2----|
A|-0------------0----------------------------------------|
E|---------------------------0------------0--------------|
   A                         Em7
e|--------------------------------------------------|
B|-----2------------2------------3------------------|
G|-------2---2--------2---2--------0---0---------2--|
D|---2-----2------2-----2------2-----2---------0----|
A|-0------------0-----------------------------------|
E|---------------------------0-----------0----------|

INTERLUDE (repeat intro)

VERSE3 (play same as verse2)

CHORUS
   A                         Em7
e|-------------------------------------------------------|
B|-----2------------2------------3------------3-------3--|
G|-------2---2--------2---2--------0---0----------0------| x3
D|---2-----2------2-----2------2-----2------2---2---2----|
A|-0------------0----------------------------------------|
E|---------------------------0------------0--------------|
   A                         Em7
e|------------------------------------------|
B|-----2------------2------------3----------|
G|-------2---2--------2---2--------0---0----|
D|---2-----2------2-----2------2-----2------|
A|-0------------0---------------------------|
E|---------------------------0-----------0--|

BRIDGE
   Em7         A6/F#         G           A6/F#
e|-----------------------------------------------------|
B|-----3------------2------------3------------2--------|
G|-------0---0--------2---0--------0---0--------2---0--|
D|---2-----2------2-----2------0-----0------2-----2----| x5
A|-----------------------------------------------------|
E|-0------------2------------3------------2------------|
   Em7                       A
e|--------------------------------------|
B|-----3------------3------------2------|
G|-------0---0--------0---0--------2----|
D|---2-----2------2-----2------2-----2--|
A|---------------------------0----------|
E|-0------------0-----------------------|

[originally posted on ultimate-guitar.com]

INTERLUDE (repeat intro)

OUTRO
  G           Em7         Bm7                     F           Am
e|-----------------------------------------------------------------------|
B|----3-----------3-----------3-----------3-----0-----1-----------1------|
G|------0---0-------0---0-------2---2---------2---------2---2-------2---2|
D|--0-----0-----2-----2-----0-----0-----0------0----3-----3-----2-----2--|
A|------------------------2-----------2-----2-----------------0----------|
E|3-----------0-----------------------------------1----------------------|
   G
e|-3----|
B|-3----|
G|-0----|
D|-0----|
A|-2----|
E|-3----|

WITH LYRICS:

INTRO
G  Em7  Bm7  x2

VERSE1
G     Em7  Bm7    F             Am              G
  Oh no, I see, a spider web is tangled up with me
      Em7     Bm7        F                  Am               G
And I lost my head, the thought of all the stupid things I'd said

VERSE2
G     Em7       Bm7     F                   Am                  G
  Oh no, what's this? A spider web, and I'm caught in the middle
     Em7     Bm7        F                 Am                 G
So I turn to run, the thought of all the stupid things I've done

CHORUS
                 A                              Em7
Well Iím singing I, I never meant to cause you trouble
A                           Em7
Oh, I never meant to do you wrong
    A                              Em7
And oh, well if I ever caused you trouble
A                             Em7
Oh no, I never meant to do you harm

INTERLUDE (repeat intro)

VERSE3
G    Em7   Bm7     F                  Am              G
  Oh no, I see, a spider web and it's me in the middle
      Em7       Bm7  F            Am
So I twist and turn, here am I in my little bubble

CHORUS (like before)
And Iím singing I, I never meant to cause you trouble
Oh, I never meant to do you wrong
And oh, well if I ever caused you trouble
Oh no, I never meant to do you harm

BRIDGE
Em7  A6/F#  G  A6/F#  x2

Em7      A6/F#     G   A6/F#
   And they spun a web for me
Em7      A6/F#     G   A6/F#
   And they spun a web for me
Em7      A6/F#     G   A6/F#
   And they spun a web for me
Em7          A
     All for me

INTERLUDE (repeat intro)

OUTRO
G     Em7   Bm7     F            Am              G
   Oh no, I see, a spider web is tangled up with me.

=========================================================================
Comment, rate, appreciate!


Share "Trouble" by Obadiah Parker


TOP 10 TABS

FRESH NEW TABS

ALL ARTISTS
artist wiki

mp3bear.com
song lyrics / contact us / privacy policy / tabspace toolbar
Copyright © 2004 - 2014 TabSpace.com - All Rights Reserved.
song: trouble guitar tabs by obadiah parker

0.022