:: Guitar & Bass Tabs Make Home Page
A B C D E F G H I J K L M N O P Q R S T U V W X Y Z #

  for    

On TABSPACE
Info About This Tab
Artist: Tokio Hotel
Tab Type: Guitar
Rate This Tab!
Intro:

E|---------------------|
B|---------------------|
G|----------555555555--|
D|-777-4444-555555555--|
A|-000-0000-333333333--|
E|---------------------|

E|---------------------|
B|---------------------|
G|----------5555-77777-|
D|-777-4444-5555-77777-|
A|-000-0000-3333-55555-|
E|---------------------|

Verse:

E|-------------------------------------------|
B|-------------------------------------------|
G|-----------555555555-----------5555--7777--|
D|-777-4444--555555555--777-4444-5555--7777--|
A|-000-0000--333333333--000-0000-3333--5555--|
E|-------------------------------------------|

E|------------------------------------------|
B|------------------------------------------|
G|----------5555-77777----------------------|
D|-777-4444-5555-77777--222222222--4444444--|
A|-000-0000-3333-55555--222222222--5555555--|
E|----------------------000000000--5555555--|

Pre Chorus:

E|----------------------|
B|----------------------|
G|----------------------|
D|-222-4444--222222222--|  x2
A|-333-5555--222222222--|
E|-333-5555--000000000--|

Chorus:

E|-------------------------------------|
B|-------------------------------------|
G|-7-7-9-9-5-5------7-7-9-9-5---7-777--|
D|-7-7-9-9-5-5-5-5--7-7-9-9-5-5-7-777--|
A|-5-5-7-7-3-3-5-5--5-5-7-7-3-5-5-555--|
E|-------------3-3------------3--------|

E|----------------------------------------------------------|
B|----------------------------------------------------------|
G|-9-9-99-55555-7-9-9999999--5-5-55-77777777--4-44-4444444--|
D|-9-9-99-55555-7-9-9999999--5-5-55-77777777--4-44-4444444--|
A|-7-7-77-33333-5-7-7777777--3-3-33-55555555--2-22-2222222--|
E|----------------------------------------------------------|

Intro
Verse
Pre Chorus
Chorus

Bridge:

E|--------------------|
B|--------------------|
G|-------------44455--|
D|-44--55--77--44455--|
A|-00--00--00--22233--|
E|--------------------|

E|--------------|
B|--------------|
G|--------------|
D|-44--55--77~--|
A|-00--00--00~--|
E|--------------|

A|--------------------------|
B|--------------------------|
G|--------------------------|
D|-22222222--4444--2222222--|
A|-22222222--5555--2222222--|
E|-33333333--5555--0000000--|

Pre Chorus
Chorus:

E-------------------------|
B|------------------------|
G|-77--7-7-9-9-5---7-777--|
D|-77--7-7-9-9-5-5-5-777--|
A|-55--5-5-7-7-3-5-5-555--|
E|---------------3--------|

E|----------------------------------------------------------|
B|----------------------------------------------------------|
G|-9-9-99-55555-7-9-9999999--5-5-55-77777777--4-44-4444444--|
D|-9-9-99-55555-7-9-9999999--5-5-55-77777777--4-44-4444444--|
A|-7-7-77-33333-5-7-7777777--3-3-33-55555555--2-22-2222222--|
E|----------------------------------------------------------|

E-------------------------|
B|------------------------|
G|-77--7-7-9-9-5---7-777--|
D|-77--7-7-9-9-5-5-5-777--|
A|-55--5-5-7-7-3-5-5-555--|
E|---------------3--------|

E|----------------------------------------------------------|
B|----------------------------------------------------------|
G|-9-9-99-55555-7-9-9999999--5-5-55-77777777--4-44-4444444--|
D|-9-9-99-55555-7-9-9999999--5-5-55-77777777--4-44-4444444--|
A|-7-7-77-33333-5-7-7777777--3-3-33-55555555--2-22-2222222--|
E|----------------------------------------------------------|

Outro:

E|---------------------|
B|---------------------|
G|----------555555555--|
D|-777-4444-555555555--|
A|-000-0000-333333333--|
E|---------------------|

E|---------------------|
B|---------------------|
G|----------5555-77777-|
D|-777-4444-5555-77777-|
A|-000-0000-3333-55555-|
E|---------------------|

E|--------------|
B|--------------|
G|--------------|
D|-44--55--22~--|
A|-00--00--33~--|
E|---------33~--|


Share "Ubers Ende Der Welt" by Tokio Hotel


TOP 10 TABS

FRESH NEW TABS

ALL ARTISTS
artist wiki

mp3bear.com
song lyrics / contact us / privacy policy / tabspace toolbar
Copyright 2004 - 2014 TabSpace.com - All Rights Reserved.
song: ubers ende der welt guitar tabs by tokio hotel

0.012