:: Guitar & Bass Tabs Make Home Page
A B C D E F G H I J K L M N O P Q R S T U V W X Y Z #

  for    

On TABSPACE
Info About This Tab
Artist: Tokio Hotel
Tab Type: Guitar
Rate This Tab!
Tabbed by Lisa :D

Tune a half Step down (works also with EADGBE)

Intro
D#|---------------------|
A#|---------------------|
F#|----------555555555--|
C#|-777-4444-555555555--|
G#|-000-0000-333333333--|
D#|---------------------|

D#|---------------------|
A#|---------------------|
F#|----------5555-77777-|
C#|-777-4444-5555-77777-|
G#|-000-0000-3333-55555-|
D#|---------------------|

Verse
D#|---------------------|
A#|---------------------|
F#|----------555555555--|
C#|-777-4444-555555555--|
G#|-000-0000-333333333--|
D#|---------------------|

D#|---------------------|
A#|---------------------|
F#|----------5555-77777-|
C#|-777-4444-5555-77777-|
G#|-000-0000-3333-55555-|
D#|---------------------|

D#|---------------------|
A#|---------------------|
F#|----------5555-77777-|
C#|-777-4444-5555-77777-|
G#|-000-0000-3333-55555-|
D#|---------------------|

D#|-------------------|
A#|-------------------|
F#|-------------------|
C#|(00000000)22222222-|
G#|-22222222-33333333-|
D#|-22222222-33333333-|

D#|---------------------|
A#|---------------------|
F#|----------555555555--|
C#|-777-4444-555555555--|
G#|-000-0000-333333333--|
D#|---------------------|

D#|---------------------|
A#|---------------------|
F#|----------5555-77777-|
C#|-777-4444-5555-77777-|
G#|-000-0000-3333-55555-|
D#|---------------------|

D#|---------------------|
A#|---------------------|
F#|----------5555-77777-|
C#|-777-4444-5555-77777-|
G#|-000-0000-3333-55555-|
D#|---------------------|

D#|-------------------|
A#|-------------------|
F#|-------------------|
C#|(00000000)22222222-|
G#|-22222222-33333333-|
D#|-22222222-33333333-|

Prechorus
D#|--------------------|
A#|--------------------|
F#|--------------------|
C#|-222-4444(000000000)|  x2
G#|-333-5555-222222222-|
D#|-333-5555-222222222-|

Chorus
D#|-------------------|
A#|-------------------|
F#|-7-7-9-9-5-5-------|
C#|-7-7-9-9-5-5-5-555-|
G#|-5-5-7-7-3-3-5-555-|
D#|-------------3-333-|

D#|-------------------|
A#|-------------------|
F#|-7-7-9-9-7-4-99999-|
C#|-7-7-9-9-7-4-99999-|
G#|-5-5-7-7-5-2-77777-|
D#|-------------------|

D#|----------------------------|
A#|----------------------------|
F#|-99999999-55555-7-9-9999999-|
C#|-99999999-55555-7-9-9999999-|
G#|-77777777-33333-5-7-7777777-|
D#|----------------------------|

D#|--------------------------|
A#|--------------------------|
F#|-55555555-77777777-44-4-4-|
C#|-55555555-77777777-44-4-4-|
G#|-33333333-55555555-22-2-2-|
D#|--------------------------|


D#|---------------------|
A#|---------------------|
F#|----------555555555--|
C#|-777-4444-555555555--|
G#|-000-0000-333333333--|
D#|---------------------|

D#|---------------------|
A#|---------------------|
F#|----------5555-77777-|
C#|-777-4444-5555-77777-|
G#|-000-0000-3333-55555-|
D#|---------------------|

Verse
D#|---------------------|
A#|---------------------|
F#|----------555555555--|
C#|-777-4444-555555555--|
G#|-000-0000-333333333--|
D#|---------------------|

D#|---------------------|
A#|---------------------|
F#|----------5555-77777-|
C#|-777-4444-5555-77777-|
G#|-000-0000-3333-55555-|
D#|---------------------|

D#|---------------------|
A#|---------------------|
F#|----------5555-77777-|
C#|-777-4444-5555-77777-|
G#|-000-0000-3333-55555-|
D#|---------------------|

D#|-------------------|
A#|-------------------|
F#|-------------------|
C#|(00000000)22222222-|
G#|-22222222-33333333-|
D#|-22222222-33333333-|

D#|---------------------|
A#|---------------------|
F#|----------555555555--|
C#|-777-4444-555555555--|
G#|-000-0000-333333333--|
D#|---------------------|

D#|---------------------|
A#|---------------------|
F#|----------5555-77777-|
C#|-777-4444-5555-77777-|
G#|-000-0000-3333-55555-|
D#|---------------------|

D#|---------------------|
A#|---------------------|
F#|----------5555-77777-|
C#|-777-4444-5555-77777-|
G#|-000-0000-3333-55555-|
D#|---------------------|

D#|-------------------|
A#|-------------------|
F#|-------------------|
C#|(00000000)22222222-|
G#|-22222222-33333333-|
D#|-22222222-33333333-|

Prechorus
D#|--------------------|
A#|--------------------|
F#|--------------------|
C#|-222-4444(000000000)|  x2
G#|-333-5555-222222222-|
D#|-333-5555-222222222-|

D#|-------------------|
A#|-------------------|
F#|-7-7-9-9-5-5-------|
C#|-7-7-9-9-5-5-5-555-|
G#|-5-5-7-7-3-3-5-555-|
D#|-------------3-333-|

D#|-------------------|
A#|-------------------|
F#|-7-7-9-9-7-4-99999-|
C#|-7-7-9-9-7-4-99999-|
G#|-5-5-7-7-5-2-77777-|
D#|-------------------|

D#|----------------------------|
A#|----------------------------|
F#|-99999999-55555-7-9-9999999-|
C#|-99999999-55555-7-9-9999999-|
G#|-77777777-33333-5-7-7777777-|
D#|----------------------------|

D#|--------------------------|
A#|--------------------------|
F#|-55555555-77777777-44-4-4-|
C#|-55555555-77777777-44-4-4-|
G#|-33333333-55555555-22-2-2-|
D#|--------------------------|

Bridge
D#|------------------|
A#|------------------|
F#|------------------|
C#|-44-55-77-444-5-5-| x5
G#|-00-00-00-000-3-3-|

D#|---------------|
A#|---------------|
F#|---------------|
C#|-44-55-77-44-5-| 
G#|-00-00-00-00-3-|
D#|---------------|

Prechorus
D#|--------------------------|
A#|--------------------------|
F#|--------------------------|
C#|-22222-222-4444(000000000)|  
G#|-33333-333-5555-222222222-|
D#|-33333-333-5555-222222222-|

D#|--------------------|
A#|--------------------|
F#|--------------------|
C#|-222-4444(000000000)|  
G#|-333-5555-222222222-|
D#|-333-5555-222222222-|

D#|---------------------|
A#|---------------------|
F#|---------------------|
C#|-222-4444(0000)22222-|  
G#|-333-5555-2222-33333-|
D#|-333-5555-2222-33333-|

(Achtung, fertig, los und lauf)

Chorus
D#|-----------------------|
A#|-----------------------|
F#|-777-7-7-9-9-7-4-99999-|
C#|-777-7-7-9-9-7-4-99999-|
G#|-555-5-5-7-7-5-2-77777-|
D#|-----------------------|

D#|----------------------------|
A#|----------------------------|
F#|-99999999-55555-7-9-9999999-|
C#|-99999999-55555-7-9-9999999-|
G#|-77777777-33333-5-7-7777777-|
D#|----------------------------|

D#|----------------------------|
A#|----------------------------|
F#|-55555555-77777777-44-4-4-4-|
C#|-55555555-77777777-44-4-4-4-|
G#|-33333333-55555555-22-2-2-2-|
D#|----------------------------|

Chorus
D#|-------------------|
A#|-------------------|
F#|-7-7-9-9-5-5-------|
C#|-7-7-9-9-5-5-5-555-|
G#|-5-5-7-7-3-3-5-555-|
D#|-------------3-333-|

D#|-------------------|
A#|-------------------|
F#|-7-7-9-9-7-4-99999-|
C#|-7-7-9-9-7-4-99999-|
G#|-5-5-7-7-5-2-77777-|
D#|-------------------|

D#|----------------------------|
A#|----------------------------|
F#|-99999999-55555-7-9-9999999-|
C#|-99999999-55555-7-9-9999999-|
G#|-77777777-33333-5-7-7777777-|
D#|----------------------------|

D#|--------------------------------------------|
A#|--------------------------------------------|
F#|-55555555-77777777-44-4-44-4444444444444444-|
C#|-55555555-77777777-44-4-44-4444444444444444-|
G#|-33333333-55555555-22-2-22-2222222222222222-|
D#|--------------------------------------------|

Outro
D#|---------------------|
A#|---------------------|
F#|----------555555555--|
C#|-777-4444-555555555--|
G#|-000-0000-333333333--|
D#|---------------------|

D#|---------------------|
A#|---------------------|
F#|----------5555-77777-|
C#|-777-4444-5555-77777-|
G#|-000-0000-3333-55555-|
D#|---------------------|

D#|---------------------|
A#|---------------------|
F#|----------555555555--|
C#|-777-4444-555555555--|
G#|-000-0000-333333333--|
D#|---------------------|

D#|---------------------|
A#|---------------------|
F#|----------5555-77777-|
C#|-777-4444-5555-77777-|
G#|-000-0000-3333-55555-|
D#|---------------------|

D#|---------------------|
A#|---------------------|
F#|----------555555555--|
C#|-777-4444-555555555--|
G#|-000-0000-333333333--|
D#|---------------------|

D#|-----------|
A#|-----------|
F#|-----------|
C#|-77-44-22--|
G#|-00-00-33--|
D#|-------33--|


That's it :)
Hope you enjoy.


Share "Uebers Ende Der Welt" by Tokio Hotel


TOP 10 TABS

FRESH NEW TABS

ALL ARTISTS
artist wiki

mp3bear.com
song lyrics / contact us / privacy policy / tabspace toolbar
Copyright 2004 - 2014 TabSpace.com - All Rights Reserved.
song: uebers ende der welt guitar tabs by tokio hotel

0.011