:: Guitar & Bass Tabs Make Home Page
A B C D E F G H I J K L M N O P Q R S T U V W X Y Z #

  for    

On TABSPACE
Info About This Tab
Artist: Misc Television
Tab Type: Bass
Difficulty: novice
Rate This Tab!
Vonage commercial   :)  its fun to play...and this tab is perfect

E,A,D,G


G-------------------------------------|
D-------4-5-4--------------4-5-4------|
A---4-7--------7-4-----4-7--------7-4-|
E-5------------------5----------------|

G--------4-5-4-----------------------|
D---4-7---------7-4--------4-5-4-----|
A-5--------------------4-7-------7-4-|
E--------------------5---------------|

G-------6-7-6--------------------------|
D---6-9--------9-6----------6-7-6------|
A-7--------------------6-9---------9-6-|
E--------------------7-----------------|

G-------4-5-4-----|
D---4-7-------7-4-|
A-5---------------|
E-----------------|

G-------------------------------------------|
D-------4-5-4----------------4-5-4----------|
A---4-7--------7-4------4-7---------7-4-----|
E-5-------------------5------------------5~-|

Hope you have fun....its easy..
any questions?   anarchychild942@yahoo.com
                 myspace.com/anarchychild942


Share "Vonage Theme" by Misc Television


TOP 10 TABS

FRESH NEW TABS

ALL ARTISTS
artist wiki

mp3bear.com
song lyrics / contact us / privacy policy / tabspace toolbar
Copyright 2004 - 2014 TabSpace.com - All Rights Reserved.
song: vonage theme bass tabs by misc television

0.014