:: Guitar & Bass Tabs Make Home Page
A B C D E F G H I J K L M N O P Q R S T U V W X Y Z #

  for    

On TABSPACE
Info About This Tab
Artist: Panic At The Disco
Tab Type: Guitar
Difficulty: intermediate
Rate This Tab!
Please note that this tab is for the "rough version" posted on their myspace yesterday 
tihnk?).

Intro:

|--------------------------------------------3-4-1~-----------1-|
|----------------6------------------6------1--------4-3---------|
|--3/5---3-2-3-5------3/5---3-2-3-5------1--------------3-2-----|
|------------------7------------------7---------------------3---|
|---------------------------------------------------------------|
|---------------------------------------------------------------|

Verse

|--------------------------------------------3-4-1~-------------|
|----------------6------------------6------1--------4-3-----6---|
|--3/5---3-2-3-5------3/5---3-2-3-5------1--------------3---5---|
|------------------7------------------7-------------------------|
|---------------------------------------------------------------|
|---------------------------------------------------------------|

The guitar in the next bit is barely audible. I spent a long time trying to figure it 
but I ended up writing this (goes with the singing, but i'm not exactly sure it's what he plays):

|------|-----|------|------|
|------|-----|------|------|
|------|-----|--10--|------|     The strumming pattern is pretty straight
|--10--|--8--|--8---|--10--|     forward. I'm sure you can manage.
|--8---|--6--|------|--8---|
|------|-----|------|------|

"You don't have to worry" (again, no strumming):

|------|-----|------|------|
|------|-----|------|------|
|------|--8--|------|--10--|
|--10--|--6--|--10--|--8---|
|--8---|-----|--8---|------|
|------|-----|------|------|

You can hear towards the end he slips in:

|---------------|
|---------------|
|---------------|
|--10--10-8-7-8-|
|---------------|
|---------------|

In the end you repeat the intro/verse twice. This is my first tab, so I hope you enjoy!


Share "Were So Starving" by Panic At The Disco


TOP 10 TABS

FRESH NEW TABS

ALL ARTISTS
artist wiki

mp3bear.com
song lyrics / contact us / privacy policy / tabspace toolbar
Copyright 2004 - 2014 TabSpace.com - All Rights Reserved.
song: were so starving guitar tabs by panic at the disco

0.035