:: Guitar & Bass Tabs Make Home Page
A B C D E F G H I J K L M N O P Q R S T U V W X Y Z #

  for    

On TABSPACE
Info About This Tab
Artist: Wasp
Tab Type: Guitar
Rate This Tab!
+++++++++++++++++++++++++++++++++++++++++++++++++++++++++++++++++++++++++++++
Wild Child - W.A.S.P.
+++++++++++++++++++++++++++++++++++++++++++++++++++++++++++++++++++++++++++++


|--------------------------------||----------|------|
|-7---7---5---5-7---7-7---5---5-o||----------|-3----|
|---6---6---6-----6-----6---6----||----------|-2----|
|--------------------------------||-4--------|-0----|
|-------------------------------o||-4--------|------|
|--------------------------------||-2--------|------|



|----------|-------||------|-||------------|----------|-------2-------|
|----------|------o||------|-||o-----------|-3--------|-----3---3-----|
|-4--------|-------||------|-||------------|-2--------|---4-------4---|
|-4--------|-4-----||------|-||--4---------|-0--------|-4-------------|
|-2--------|-4----o||-7S=2-|-||o-4---------|----------|-2-------------|
|----------|-2-----||-5S=0-|-||--2---------|----------|---------------|



|----------------||------|------|----------|--------|
|---------------o||------|------|----------|--------|
|-----------7-9--||-7----|-9----|----------|-7------|
|-4---------7-9--||-7----|-9----|-4--------|-7------|
|-4---------5-7-o||-5----|-7----|-4--------|-5------|
|-2--------------||------|------|-2--------|--------|



                PM--------|

|-----------|------------------------------|
|-----------|------------------------------|
|-9---------|------------------------------|
|-9---------|-4----------------------------|
|-7---------|-4--------------7-5-4---------|
|-----------|-2-2-2-2-2-2-2--------7-5-4-0-|



|-||----------------|----------------|
|-||o---------------|----------------|
|-||--------------2-|-------------2--|
|-||--------------2-|-------------2--|
|-||o-4-----------0-|-4-----------0--|
|-||--2-2-2-2-0h2---|-2-2-2-2-0h2----|


                                                      ~

|---------------||-----------|--------------------------|------|------|
|-3------------o||-----------|--------------------------|------|------|
|-2-------------||-----------|-4b5--2---4-2-4-4b5---2---|-2----|------|
|-0---------2---||-4---------|--------4---------------4-|-2----|-4----|
|-----------2--o||-4---------|--------------------------|-0----|-4----|
|-----------0---||-2---------|--------------------------|------|-2----|


                                            ~~                 ~

|------|-----------|----------------------------------------------|
|------|-----------|------------------------5p3p2h3p2------------|
|-2----|-----------|-4b6-4b6----4b6-4b6---2------------4-2S1---4--|
|-2----|-4---------|-----------------------------------------4----|
|-0----|-4---------|----------------------------------------------|
|------|-2---------|----------------------------------------------|


           PM--------|

|--------------------4-5-7-7----|
|---7---7--------5-7------------|
|-4---4-4--4-6-7----------------|
|-------------------------------|
|-------------------------------|
|-------------------------------|


              ~~    PM----|

|-7p4h5h7p5p4---------------0-0------------------|
|-------------------------------7-10b12-7-10b12--|
|-------------------------6----------------------|
|-------------4S=16S4-6-7------------------------|
|------------------------------------------------|
|------------------------------------------------|


                           ~                  ~

|-18b20-15-20b22-22b24-||------------------------------|
|----------------------||o-----------------------------|
|----------------------||---------4--------------------|
|----------------------||--4--6-7---7-6-7-6------------|
|----------------------||o------------------7-5--7b9---|
|----------------------||------------------------------|


  ~                  ~

|-------------------------------||-*|
|------------------------------o||-*|
|--------4---4-6-4-6-7--9b11----||-*|
|-4--6-7---7--------------------||-*|
|------------------------------o||-*|
|-------------------------------||-*|


Share "Wild Child" by Wasp


TOP 10 TABS

FRESH NEW TABS

ALL ARTISTS
artist wiki

mp3bear.com
song lyrics / contact us / privacy policy / tabspace toolbar
Copyright 2004 - 2014 TabSpace.com - All Rights Reserved.
song: wild child guitar tabs by wasp

0.004