:: Guitar & Bass Tabs Make Home Page
A B C D E F G H I J K L M N O P Q R S T U V W X Y Z #

  for    

On TABSPACE
Info About This Tab
Artist: Casual Wish
Tab Type: Guitar
Tuning: Drop D
Rate This Tab!
  Intro: [Clean/Slight Reverb]
E|---------------------------------------------------|
B|-------------------------------------------------7-|
G|---7-/-9-/-11-/-12-/-11---9-7-6--7--7-/-9--9--7--7-|
D|-x------------------------7-7----5---------7-------|
A|-x-5-/-7-/-9-/--10-/-9----7-7-7--5--5-/-7--7--5--5-|
D|-x-0---0---0-----0---0----7-7-7--5--0---0--7-------|

  Verse:
E|---------------------------------------------------|
B|---------------7--5--7--5--7--5--8-7-5-------------|
G|-----------------7--7--7--7--7--7------------------|
D|-7-7--5--7-/-0-------------------------------------|
A|-7-7--5--7-/-0-------------------------------------|
D|-7-7--5--7-/-0-------------------------------------|

E|---------------------------------------------------|
B|---------------7--5--7--5--7--5--8-7-5-------------|
G|-----------------7--7--7--7--7--7------------------|
D|-5--7--/-0-----------------------------------------|
A|-5--7----0-----------------------------------------|
D|-5--7--/-0-----------------------------------------|

E|---------------------------------------------------|
B|---------------------------------------------------|
G|---------------------------------------------------|
D|-5--7---0--7--5-/-7---5--7--0--7--5-/-7-x----------|
A|-5--7---0--7--5---7---5--7--0--7--5---7-x----------|
D|-5--7---0--7--5-/-7---5--7--0--7--5-/-7-x----------|

E|---------------------------------------------------|
B|---------------------------------------------------|
G|---------------------------------------------------|
D|-0---4-/-5---5-/-7---7-/-5---4-/-5-----------------|
A|-0---4-/-5---5-/-7---7-/-5---4-/-5-----------------|
D|-0---4-/-5---5-/-7---7-/-5---4-/-5-----------------|

  Chorus:
E|---------------------------------------------------|
B|---------------------------------------------------|
G|---------------------------------------------------|
D|-0----7----5----0----7----0----7----5----0----7----|
A|-0----7----5----0----7----0----7----5----0----7----|
D|-0----7----5----0----7----0----7----5----0----7----|


  Bridge:
E|---------------------------------------------------|
B|---------------------------------------------------|
G|---6-7-6--6-7---6-7-6--6-7----6-7-6--6-7-----------|
D|-0-------7-----7------7-----5-------7----4---5-----|
A|-0-------------7------------5------------4---5-----|
D|-0-------------7------------5------------4---5-----|

  Verse:
E|---------------------------------------------------|
B|---------------7--5--7--5--7--5--8-7-5-------------|
G|-----------------7--7--7--7--7--7------------------|
D|-5--7--/-0-----------------------------------------|
A|-5--7----0-----------------------------------------|
D|-5--7--/-0-----------------------------------------|

E|---------------------------------------------------|
B|---------------------------------------------------|
G|---------------------------------------------------|
D|-5--7---0--7--5-/-7---5--7--0--7--5-/-7-x----------|
A|-5--7---0--7--5---7---5--7--0--7--5---7-x----------|
D|-5--7---0--7--5-/-7---5--7--0--7--5-/-7-x----------|


E|---------------------------------------------------|
B|---------------------------------------------------|
G|---------------------------------------------------|
D|-0~----0~--7--x---0---7---5---0---7------0~--------|
A|-0~----0~--7--x---0---7---5---0---7------0~--------|
D|-0~----0~--7--x---0---7---5---0---7------0~--------|


Share "Wires And Poles Put Liars In Holes" by Casual Wish


TOP 10 TABS

FRESH NEW TABS

ALL ARTISTS
artist wiki

mp3bear.com
song lyrics / contact us / privacy policy / tabspace toolbar
Copyright 2004 - 2014 TabSpace.com - All Rights Reserved.
song: wires and poles put liars in holes guitar tabs by casual wish

0.009